Oops, an error
Loading. Please wait.

Elizabeth intro tab

version 2
version 2

Intro

298 views 9 this week
1 commentread comment
1 2 3 4 5
1 last vote to show rating
add to favorites
×
Save as Personal and add changes to this tab that will be seen only by you. Learn more ›
×
You can save this tab as Personal to edit and correct it or add notes. All changes will be seen only by you. Learn more »
launch autoscroll
font size
0
reset
how to read this tab
guitar tuner
edit
Autoscroll
slow
fast
+/-
esc
set tempo
stop
-------------------------------------------------------------------------------
                            Elizabeth Intro - Airborne Toxic Event
-------------------------------------------------------------------------------
Tabbed by: sstewartlee

Tuning: Standard
Capo 7

e|---------------------------------------------------------------------------|
B|-----------0----------------0h1--0-----------0h1--0h1--0h1--0--------------|
G|----------------------------------------------------------------0--2-------|
D|-------------------2-------------------2------------------------------0----|
A|-----1-------------3-------------------3-----------------------------------|
E|--2------------------------------------------------------------------------|


This might not be 100% correct, but I couldn't find the proper intro anywhere else so I made this one
and it sounds pretty good.

************************************

| /   slide up
| \   slide down
| h   hammer-on
| p   pull-off
| ~   vibrato
| +   harmonic
| x   Mute note
| b   Bend
| pb  Pre-bend
| br  Bend release
| pbr Pre-bend release
| brb Bend release bend

************************************

            
            
Suggest correction
Creating personal tab
Creating personal tab
You can edit any tab online and save it as your Personal.

You can edit, replace or remove any tab part or add personal notes – all changes will be seen only by you.

Personal tabs can be accessed anytime from any device, even offline.
Learn more »
Give kudos to tab author, rate the tab!
1 2 3 4 5
comments
print report bad tab
1 comment total.
0 reply
JacenBlare 10 Apr 24, 2016 08:15 AM

its a G position at the begining then a C then back to a G on the little hammer on pull off with ur index

guest
You may want to rate the tab now too:
select rating
Wanna post a correction for this tab? Suggest correction