Oops, an error
Loading. Please wait.

Letter To Georgia tab

184 views 1 this week
no commentswrite comment
1 2 3 4 5
3 more votes to show rating
add to favorites
×
Save as Personal and add changes to this tab that will be seen only by you. Learn more ›
×
You can save this tab as Personal to edit and correct it or add notes. All changes will be seen only by you. Learn more »
launch autoscroll
font size
0
reset
how to read this tab
guitar tuner
edit
Autoscroll
slow
fast
+/-
esc
set tempo
stop
Author
Difficulty
-------------------------------------------------------------------------------
                LETTER TO GEORGIA - The Airborne Toxic Event
-------------------------------------------------------------------------------
Tabbed by: Mac Cartier
Tuning:EADGBe

Beautiful song, there are many ways to play it, but I prefer this one. It doesn't work the bass notes in, 
so you may have to just play the chord.
This tab just repeats the whole song.


      D               Dadd4/G         D                A
e|--------5-----5---------5-----5---------5-----5---------5-----5------------|
B|------7-----7-----7---8-----8-----8---7-----7-----7---5-----5-----5--------|
G|----7-----7-----7---7-----7-----7---7-----7-----7---6-----6-----6----------|
D|---------------------------------------------------------------------------|
A|---------------------------------------------------------------------------|
E|---------------------------------------------------------------------------|

      D6/B            Dadd4/G         D               A
e|--------7-----7---------5-----5---------5-----5---------5-----5------------|
B|------7-----7-----7---8-----8-----8---7-----7-----7---5-----5-----5--------|
G|----7-----7-----7---7-----7-----7---7-----7-----7---6-----6-----6----------|
D|---------------------------------------------------------------------------|
A|---------------------------------------------------------------------------|
E|---------------------------------------------------------------------------|

Chords:
D: XX0232
Dadd4/G: 3XX233
A: X03330
D6/B: X2X202
   
************************************

| /   slide up
| \   slide down
| h   hammer-on
| p   pull-off
| ~   vibrato
| +   harmonic
| x   Mute note
| b   Bend
| pb  Pre-bend
| br  Bend release
| pbr Pre-bend release
| brb Bend release bend

************************************

            
            
Suggest correction
Creating personal tab
Creating personal tab
You can edit any tab online and save it as your Personal.

You can edit, replace or remove any tab part or add personal notes – all changes will be seen only by you.

Personal tabs can be accessed anytime from any device, even offline.
Learn more »
Give kudos to tab author, rate the tab!
1 2 3 4 5
comments
print report bad tab
guest
You may want to rate the tab now too:
select rating
Wanna post a correction for this tab? Suggest correction