Oops, an error
Loading. Please wait.

Numb Tab

version 2
version 2

Whole song

562 views 1 this week
no commentswrite comment
1 2 3 4 5
please rate
add to favorites
launch autoscroll
font size
0
reset
how to read this tab
guitar tuner
Autoscroll
slow
fast
+/-
esc
set tempo
stop
Help us to improve Ultimate-Guitar.com Take our survey!
×
-----------------------------------------------------------------------------
                    Numb - The Airborne Toxic Event
-----------------------------------------------------------------------------
Tabbed by: b3nn

Here's the parts for Numb based off what I think they're doing at live shows.
There's a bit more layering on the recording, but this should get you close. 
Also Mikel uses open chords at the chorus, but I'm lazy and use bar chords.

Tuning: Standard


Intro:
e|--15-15-15-15-15-15-15-15-14-14-14-14-14-14-14-14-12-12-12-12-12-12-12-12-|
B|--------------------------------------------------------------------------|
G|--------------------------------------------------------------------------|
D|--------------------------------------------------------------------------|
A|--------------------------------------------------------------------------|
E|--------------------------------------------------------------------------|
   

Guitar 1
e|-------------------------------------------|
B|------3^--3^---3^----3^----5^----5^--------|
G|-------------------------------------------|  
D|-------------------------------------------|
A|-------------2----2------3----3------------|
E|---3---3-----------------------------------|


Guitar 2 
e|--15-15-15-14-14-14-12-12-12----------------------------------------------|
B|-----------------------------15-15-15-13-13-13-12-12-12-------------------|
G|--------------------------------------------------------14-14-14-10-10-10-|    
D|--------------------------------------------------------------------------|
A|--------------------------------------------------------------------------|
E|--------------------------------------------------------------------------|


Verse 1
e|-------------------------------------------|
B|-------------------------------------------|
G|-----------4---5----------------4----------|
D|---5---5---4---5--------5---5---4----------|
A|---5---5---2---3--------5---5---2----------|
E|---3---3----------------3---3--------------|


Verse 2
e|--------------------------------------------------------------------------|
B|--------------------------------------------------------------------------|
G|-----------4---5----------------4-----------------------------------------|
D|---5---5---4---5--------5---5---4-----5-5-5-5-5--2-2-2--------------------|
A|---5---5---2---3--------5---5---2-----5-5-5-5-5--2-2-2--------------------|
E|---3---3----------------3---3---------3-3-3-3-3--0-0-0--------------------|


Chorus
e|-------------------------------------------|
B|-------------------------------------------|
G|-----7--5----------7--5----------4--7------|
D|--2--7--5--5----2--7--5--5----2--4--7------|
A|--2--5--3--5----2--5--3--5----2--2--5------|
E|--0--------3----0--------3----0------------|

    
    
Bass line at drop out    
e|-------------------------------------------|
B|-------------------------------------------|
G|-------------------------------------------|
D|-------------------------------------------|
A|---------------------2-3-2--3---3-5-3--5---|
E|-3-5-3--5--3-5-3--5------------------------|

(live they seem to play this up an octave after playing
  it a few times with the bass) 
Suggest correction What's this?
You can suggest a correction to this tab. Community and Mods will review your correction and vote to approve or reject it.
comments
We did not receive enough feedback on this tab! Please rate:
print report bad tab
1 2 3 4 5
I want to post or [tab]
guest
You may want to rate the tab now too:
select rating
Please do not post tabs as comments. Select "correction" instead!