Oops, an error
Loading. Please wait.

Eye In The Sky tab

version 1
version 1

Whole song

  • It's complete... Chords, solo, riffs.

Interactive

64 views 12 this week
no commentswrite comment
1 2 3 4 5
3 more votes to show rating
add to favorites
×
Save as Personal and add changes to this tab that will be seen only by you. Learn more ›
×
You can save this tab as Personal to edit and correct it or add notes. All changes will be seen only by you. Learn more »
launch autoscroll
font size
0
reset
how to read this tab
guitar tuner
backing track
0:00
0:00
edit
Autoscroll
slow
fast
+/-
esc
set tempo
stop
About this tab version
It's complete... Chords, solo, riffs. Was this info helpful? Yes No
SIRIUS / EYE IN THE SKY

Riffs:

   Riff 1
e|-------------|--------------|
B|-------------|--------------|
G|-6-7-9-4-4-6-|-6-7-9-4-4-6--|
D|-------------|------------7-|
A|-------------|--------------|
E|-------------|--------------|

   Riff 2      Riff 3
    Bm           Gm
e|-----------|-----------|
B|-----------|-----------|
G|-6-7-4-6---|-6-7-4-6---|
D|---------7-|---------5-|
A|-----------|-----------|
E|-----------|-----------|


   Riff 4    Riff 5     Riff 6     Riff 7
e|---------|----------|--------|--------------|
B|---------|----------|--------|--------------|
G|---6-7-9-|----------|--------|--------7-----|
D|--9------|----------|-----7~-|-7brbr7—--7/9-|
A|-9-------|-7~-5-7---|-4-5----|--------------|
E|---------|-------7~-|--------|--------------|



Intro

e|--------------|
B|--------------|
G|-6H7-6--------|
D|-------7------|
A|--------7-7H9-|
E|--------------|

e|-----7-------5---|
B|-5-7---4-5-7---4-|
G|-----------------|
D|-----------------| X2
A|-----------------|
E|-----------------|

  Bm      G     Em    Bm
e|-----------------------|
B|-----------------------|
G|-4-------------------4-|
D|-4------5------2-----4-|
A|-2------5------2-----2-|
E|--------3------0-------|

    Bm                     G                      Em                   Bm
e|----------------------|-----------------------|--------------------|--------------------|---|
B|-/12-10-8---7-8-7-----|-----------------------|--------------------|-/12-10-8---7-8-7---|---|
G|------------------7---|-/12-11-9---7-9-7------|-/9-7-6---4h6h4-----|------------------7-|-%-|
D|----------------------|------------------9----|----------------7---|--------------------|---|
A|----------------------|--------------------10-|------------------9-|--------------------|---|
E|----------------------|-----------------------|--------------------|--------------------|---|



[Solo]
     Bm                              G                    Em                        Bm
e|----------------|---------------------|---------------|----------------|----------18b-|-----|
B|------12-14-14b-|-14b----r14p12-10h12-|---12-14-15-17-|-17b--17-15-17b-|-17br17-15----|-----|
G|-11/12----------|---------------------|-12------------|----------------|--------------|-----|
D|----------------|---------------------|---------------|----------------|--------------|-----|
A|----------------|---------------------|---------------|----------------|--------------|-----|
E|----------------|---------------------|---------------|----------------|--------------|-18/-|


  D5               G5     B5             G5  
e|---------------|-----|---------------|-----|
B|---------------|-----|---------------|-15b-|
G|-6-7-9-4-4-6---|-16v-|-6-7-9-4-4-6---|-----|
D|-------------7-|-----|-------------7-|-----|
A|---------------|-----|---------------|-----|
E|---------------|-----|---------------|-----|


  D5               G5     B5                G5  
e|---------------|-----|------------------|-14b-|
B|---------------|-12b-|------------------|-----|
G|-6-7-9-4-4-6---|-----|-6-7-9-4-4-6---5--|-----|
D|-------------7-|-----|-------------7--7-|-----|
A|---------------|-----|------------------|-----|
E|---------------|-----|------------------|-----|



D                          Bm   Riff 1
Don't think sorry's easily said
D                          Bm   Riff 1
Don't try turning tables instead
       G                       Gm
You've taken lots of chances before
    Bm                     E
But I ain't gonna give any more, Don't ask me
D
That's how it goes
       G                            D
'Cause part of me knows what you're thinking



D                              Bm  Riff 1
Don't say words you're gonna regret
D                               Bm  Riff 1
Don't let the fire rush to your head
     G                      Gm   
I've heard the accusation before
    Bm                     E
And I ain't gonna take any more, Believe me
    D
The sun in your eyes
     G                        D
Made some of the lies worth believing



         D
I am the eye in the sky Looking at you
F#m
I can read your mind
         D
I am the maker of rules Dealing with fools
F#m
I can cheat you blind


    G                       Gm
And I don't need to see any more
            Riff 2 Bm                 Riff 3  G                  Riff 2
To know that       I can read your mind,     I can read your mind
Bm                  Riff 3  G
I can read your mind,      I can read your mind


D                             Bm    Riff 1
Don't leave false illusions behind
D                                    Bm  Riff 1
Don't cry 'cause I ain't changing my mind


   G                        Gm
So find another fool like before
       Bm                    E
'Cause I ain't gonna live anymore believing
D                      G                    D
Some of the lies while all of the signs are deceiving



         D
I am the eye in the sky Looking at you
F#m
I can read your mind
         D
I am the maker of rules Dealing with fools
F#m
I can cheat you blind                                        


    G                       Gm
And I don't need to see any more
             Riff 2                Riff 3             Riff 4 
             Bm                    G                  
To know that I can read your mind, I can read your mind
Riff 2                Riff 3
Bm                    G
I can read your mind, I can read your mind



         D
I am the eye in the sky Looking at you
F#m
I can read your mind
         D
I am the maker of rules Dealing with fools
F#m
I can cheat you blind                                        


    G                       Gm
And I don't need to see any more
             Riff 2             Riff5  Riff 3             Riff 6
             Bm                        G                  
To know that I can read your mind,     I can read your mind
Riff 2              Riff 7  Riff 3
Bm                          G
I can read your mind,       I can read your mind



Solo B5 G5 x4

                       B5                                   G5 
e|-------3-----------|-----5--2--------------|-----------------|
B|-5b7-----5b7r5p3---|--5--------3-----------|-----------------|
G|-----------------4-|--------------4--------|--2--------------|
D|-------------------|-----------------2-----|-----4-----------|
A|-------------------|-----------------------|--------5--2-----|
E|-------------------|-----------------------|--------------2--|

                                                B5
e|-----------------------|-----------5-------7--9b11--|
B|-----------------3-----|--5----5/7-----7-8----------|
G|-----------2--------2--|-----2----------------------|
D|--------------4--------|----------------------------|
A|-----2--5--------------|----------------------------|
E|--3--------------------|----------------------------|

e|-9--7---------------|-10-------|
B|-------7--10/12--10-|----10h12-|
G|--------------------|----------|
D|--------------------|----------|
A|--------------------|----------|
E|--------------------|----------|

   G5
e|------10-10-10----9-----7-|--------------------|
B|-10b12---------10---10----|---------------10---|
G|--------------------------|-9b11r9p7--7-9----7-|
D|--------------------------|----------9---------|
A|--------------------------|--------------------|
E|--------------------------|--------------------|

   B5                      G5
e|-----------|----------------|-------------10-----9-----|
B|-----7-----|----------------|--------------------------|
G|--6-----7--|--6-------------|--6/7--9b11------9-----7--|
D|-----------|-----7-----7/9--|--------------------------|
A|-----------|--------9-------|--------------------------|
E|-----------|----------------|--------------------------|

              B5
e|--7---------12b13r12--10-12b-12b-|-12r-10-12-10-|
B|-----10/12-----------------------|--------------|
G|---------------------------------|--------------|
D|---------------------------------|--------------|
A|---------------------------------|--------------|
E|---------------------------------|--------------|

   G5
e|---9/10--------------|
B|--------12----12/15--|
G|-11-------11---------|
D|---------------------|
A|---------------------|
E|---------------------|

                                          B5 B5 x B5
e|--------12--14-----|--------12--14-----|------------|
B|-15b17----------15-|-15b17----------15-|------------|
G|-------------------|-------------------|-4-—4—-x--4-|
D|-------------------|-------------------|-4--4--x--4-|
A|-------------------|-------------------|-2--2--x--2-|
E|-------------------|-------------------|------------|



***********************************

| x   Dead note
| /   Slide-up
| b   bend
| ~   Vibrato

***********************************
Suggest correction
Creating personal tab
Creating personal tab
You can edit any tab online and save it as your Personal.

You can edit, replace or remove any tab part or add personal notes – all changes will be seen only by you.

Personal tabs can be accessed anytime from any device, even offline.
Learn more »
Give kudos to tab author, rate the tab!
1 2 3 4 5
comments
print report bad tab
guest
You may want to rate the tab now too:
select rating
Wanna post a correction for this tab? Suggest correction