Oops, an error
Loading. Please wait.

Pyramania Bass Tab

46 views 1 this week
no commentswrite comment
1 2 3 4 5
3 more votes to show rating
add to favorites
launch autoscroll
font size
0
reset
guitar tuner
Autoscroll
slow
fast
+/-
esc
set tempo
stop
Help us to improve Ultimate-Guitar.com Take our survey!
×
Intro :
G|---------------------------------|---------------------------------|
D|---------------------------------|---------------------------------|
A|---------------------------------|---------------------------------|
E|0--------------------------------|---------------------------------|

G|---------------------------------|---------------------------------|
D|---------------------------------|---------------------------------|
A|5--------------------------------|---------------------------------|
E|---------------------------------|---------------------------------|

G|---------------------------------|---------------------------------|
D|---------------------------------|---------------------------------|
A|---------------------------------|---------------------------------|
E|5--------------------------------|3--------------------------------|

G|---------------------------------|---------------------------------|
D|---------------------------------|---------------------------------|
A|3--------------------------------|2--------------------------------|
E|---------------------------------|---------------------------------|

G|---------------------------------|---------------------------------|
D|---------------------------------|---------------------------------|
A|7--------------------------------|---------------------------------|
E|---------------------------------|---------------------------------|

Verse 1 :
G|---------------------------------|---------------------------------|
D|---------------------------------|---------------------------------|
A|7--------------------------------|7-----------7--------------------|
E|---------------------------------|---------------------------------|

G|---------------------------------|---------------------------------|
D|---------------------------------|---------------------------------|
A|5--------------------------------|---------------------------------|
E|---------------------------------|7-----------7--------------------|

G|---------------------------------|---------------------------------|
D|---------------------------------|---------------------------------|
A|7--------------------------------|7-----------7--------------------|
E|---------------------------------|---------------------------------|

G|---------------------------------|---------------------------------|
D|---------------------------------|---------------------------------|
A|5--------------------------------|---------------------------------|
E|---------------------------------|7-----------7--------------------|

Chorus :
G|--------------/-6-------6--------|----------------6-------6--------|
D|---------------------------------|6-------6------------------------|
A|4-------4------------------------|---------------------------------|
E|---------------------------------|---------------------------------|

G|--------------/-6-------6--------|--------------/-3-------3--------|
D|---------------------------------|---------------------------------|
A|4-------4---4--------------------|1-------1------------------------|
E|---------------------------------|---------------------------------|

G|----------------3-------3--------|3-------3---3--------------------|
D|3-------3------------------------|---------------------------------|
A|---------------------------------|----------------1-------1--------|
E|---------------------------------|---------------------------------|

G|---------------------------------|---------------------------------|
D|--------------/-5-------5--------|----------------5-------5--------|
A|---------------------------------|5-------5---5--------------------|
E|3-------3------------------------|---------------------------------|

G|---------------------------------|---------------------------------|
D|5---------------5----------------|---------------------------------|
A|---------------------------------|2-------2-------2-------2--------|
E|---------------------------------|---------------------------------|

G|---------------------------------|
D|---------------------------------|
A|2-------2---2---2-------2--------|
E|---------------------------------|

Verse 2 :
G|---------------------------------|---------------------------------|
D|---------------------------------|---------------------------------|
A|7---------------7----------------|7---------------7----------------|
E|---------------------------------|---------------------------------|

G|---------------------------------|---------------------------------|
D|---------------------------------|---------------------------------|
A|---------------------------------|---------------------------------|
E|7---------------7----------------|7---------------7----------------|

G|---------------------------------|---------------------------------|
D|---------------------------------|---------------------------------|
A|---------------------------------|---------------------------------|
E|0---------------0----------------|0---------------0----------------|

G|---------------------------------|---------------------------------|
D|---------------------------------|---------------------------------|
A|---------------------------------|---------------------------------|
E|7---------------7----------------|7---------------7----------------|

Chorus :
G|--------------/-6-------6--------|----------------6-------6--------|
D|---------------------------------|6-------6------------------------|
A|4-------4------------------------|---------------------------------|
E|---------------------------------|---------------------------------|

G|--------------/-6-------6--------|--------------/-3-------3--------|
D|---------------------------------|---------------------------------|
A|4-------4---4--------------------|1-------1------------------------|
E|---------------------------------|---------------------------------|

G|----------------3-------3--------|3-------3---3--------------------|
D|3-------3------------------------|---------------------------------|
A|---------------------------------|----------------1-------1--------|
E|---------------------------------|---------------------------------|

G|---------------------------------|---------------------------------|
D|--------------/-5-------5--------|----------------5-------5--------|
A|---------------------------------|5-------5---5--------------------|
E|3-------3------------------------|---------------------------------|

G|---------------------------------|---------------------------------|
D|5---------------5----------------|---------------------------------|
A|---------------------------------|0--------------------------------|
E|---------------------------------|---------------------------------|

G|---------------------------------|
D|---------------------------------|
A|---------------------------------|
E|---------------------------------|

Chorus :
G|--------------/-6-------6--------|----------------6-------6--------|
D|---------------------------------|6-------6------------------------|
A|4-------4------------------------|---------------------------------|
E|---------------------------------|---------------------------------|

G|--------------/-6-------6--------|--------------/-3-------3--------|
D|---------------------------------|---------------------------------|
A|4-------4---4--------------------|1-------1------------------------|
E|---------------------------------|---------------------------------|

G|----------------3-------3--------|3-------3---3--------------------|
D|3-------3------------------------|---------------------------------|
A|---------------------------------|----------------1-------1--------|
E|---------------------------------|---------------------------------|

G|---------------------------------|---------------------------------|
D|--------------/-5-------5--------|----------------5-------5--------|
A|---------------------------------|5-------5---5--------------------|
E|3-------3------------------------|---------------------------------|

G|---------------------------------|---------------------------------|
D|5---------------5----------------|---------------------------------|
A|---------------------------------|---------------------------------|
E|---------------------------------|0-------0-------0----------------|

G|---------------------------------|
D|---------------------------------|
A|---------------------------------|
E|0--------------------------------|

Solo synth :
G|---------------------------------|---------------------------------|
D|---------------------------------|---------------------------------|
A|2--------------------------------|----------------5-------4--------|
E|---------------------------------|---------------------------------|

G|---------------------------------|---------------------------------|
D|---------------------------------|---------------------------------|
A|2--------------------------------|----------------5-------4--------|
E|---------------------------------|---------------------------------|

G|---------------------------------|---------------------------------|
D|---------------------------------|---------------------------------|
A|2--------------------------------|----------------5-------4--------|
E|---------------------------------|---------------------------------|

G|---------------------------------|---------------------------------|
D|---------------------------------|---------------------------------|
A|2--------------------------------|----------------5-------4--------|
E|---------------------------------|---------------------------------|

Interlude :
G|---------------------------------|---------------------------------|
D|---------------------------------|---------------------------------|
A|---------------------------------|---------------------------------|
E|0---------------0----------------|0---------------0----------------|

G|---------------------------------|---------------------------------|
D|---------------------------------|---------------------------------|
A|---------------------------------|---------------------------------|
E|7---------------7----------------|7---------------7----------------|

G|---------------------------------|---------------------------------|
D|---------------------------------|---------------------------------|
A|---------------------------------|---------------------------------|
E|0---------------0----------------|0---------------0----------------|

G|---------------------------------|---------------------------------|
D|---------------------------------|---------------------------------|
A|---------------------------------|---------------------------------|
E|7---------------7----------------|7---------------7----------------|
Chorus :
G|--------------/-6-------6--------|----------------6-------6--------|
D|---------------------------------|6-------6------------------------|
A|4-------4------------------------|---------------------------------|
E|---------------------------------|---------------------------------|

G|--------------/-6-------6--------|--------------/-3-------3--------|
D|---------------------------------|---------------------------------|
A|4-------4---4--------------------|1-------1------------------------|
E|---------------------------------|---------------------------------|

G|----------------3-------3--------|3-------3---3--------------------|
D|3-------3------------------------|---------------------------------|
A|---------------------------------|----------------1-------1--------|
E|---------------------------------|---------------------------------|

G|---------------------------------|---------------------------------|
D|--------------/-5-------5--------|----------------5-------5--------|
A|---------------------------------|5-------5---5--------------------|
E|3-------3------------------------|---------------------------------|

G|---------------------------------|
D|5---------------5----------------|
A|---------------------------------|
E|---------------------------------|

Outro :
G|---------------------------------|---------------------------------|
D|---------------------------------|---------------------------------|
A|---------------------------------|---------------------------------|
E|0--------------------------------|---------------------------------|

G|---------------------------------|---------------------------------|
D|---------------------------------|---------------------------------|
A|5--------------------------------|---------------------------------|
E|---------------------------------|---------------------------------|

G|---------------------------------|---------------------------------|
D|---------------------------------|---------------------------------|
A|---------------------------------|---------------------------------|
E|5--------------------------------|3--------------------------------|

G|---------------------------------|---------------------------------|
D|---------------------------------|---------------------------------|
A|3--------------------------------|2--------------------------------|
E|---------------------------------|---------------------------------|

G|---------------------------------|---------------------------------|
D|---------------------------------|---------------------------------|
A|---------------------------------|---------------------------------|
E|0--------------------------------|---------------------------------|
Suggest correction
Give kudos to tab author, rate the tab!
1 2 3 4 5
comments
print report bad tab
guest
You may want to rate the tab now too:
select rating
Wanna post a correction for this tab? Suggest correction