Oops, an error
Loading. Please wait.

Fear Of Losing Tab

118 views 1 this week
no commentswrite comment
1 2 3 4 5
please rate
add to favorites
launch autoscroll
font size
0
reset
how to read this tab
guitar tuner
Autoscroll
slow
fast
+/-
esc
set tempo
stop
Help us to improve Ultimate-Guitar.com Take our survey!
×
Author
Difficulty
Capo
intermediate
1st fret
Fear Of Losing - Alaskan Pipeline
Track 2 - 3rd EP

Andrew Pitts - andrew.pitts@hotmail.com
Standard Tuning
For Acoustic And Electric Guitars


Acoustic Chords

CAPO ON 1 - All tab notation relative to capo except chords which are true.


  Ab/Db  Gbmaj7  Bbm  Ab
e|--0------0------0----3----|
b|--1------1------1----3----|
g|--0------2------2----0----|
d|--2------3------2----0----|
a|--3------3------0----2----|
e|--3------1------x----3----|

ELECTRIC GUITAR INRTO

Ab/Db, Gbmaj7

Ab/Db
Do you realise?

                                     Gbmaj7
We have no chance, we have no second sign, this time.

Ab/Db
Do you realise?

                                     Gbmaj7
We won't feel cold, we won't feel so alone, this time.


CHORUS

Bbm
Cause I'm losing it

    Ab
I'm losing it

               Bbm
And you're not trying

              Ab
But you flow far from here


Again, again oh!


Ab/Db, Gbmaj7, Ab/Db, Gbmaj7


Ab/Db
I swear I've never been there

                                  Gbmaj7
The smell is sweet and the air so beautiful, beautiful

Ab/Db
If you'll only stand here

                                        Gbmaj7
I'll never say those words you dread to hear, hear, hear oh, hear


CHORUS
          Bbm
Cause I'm losing it

    Ab
I'm losing it

               Bbm
And you're not trying

             Ab
And you flow far from here


Again, again baby

    Bbm
I'm losing it

    Ab
I'm losing it

               Bbm
And you're not trying

             Ab
And you flow far from here

Again, again.


OUTRO

Ab/Db, Gbmaj7, Ab/Db, Gbmaj7, Ab/Db


----------------------------------------------------------------------


Electric Guitar Tab

NO CAPO - All notation relative to fretboard

COMPLETE SONG

INTRO

  1 & 2 & 3 & 4 &  1 & 2 & 3 & 4 &  1 & 2 & 3 & 4 &  1 & 2 & 3 & 4 &
e|----------------|----------------|----------------|----------------|
b|----9---7-9---6-|----9---7-9---6-|----9---7-9---6-|----9---7-9-7-6-|
g|6---------------|--6-------------|--6-------------|--6-------------|
d|----------------|----------------|----------------|----------------|
a|----------------|----------------|----------------|----------------|
e|----------------|----------------|----------------|----------------|

  1 & 2 & 3 & 4 &  1 & 2 & 3 & 4 &  1 & 2 & 3 & 4 &  1 & 2 & 3 & 4 &
e|----------------|----------------|----------------|----------------|
b|----9---7-9---6-|----9---7-9---6-|----9---7-9---6-|----9---7-9-7-6-|
g|6---------------|--6-------------|--6-------------|--6-------------|
d|----------------|----------------|----------------|----------------|
a|----------------|----------------|----------------|----------------|
e|----------------|----------------|----------------|----------------|

  1 & 2 & 3 & 4 &  1 & 2 & 3 & 4 &  1 & 2 & 3 & 4 &  1 & 2 & 3 & 4 &
e|----------------|----------------|----------------|----------------|
b|----9---7-9---6-|----9---7-9---6-|----9---7-9---6-|----9---7-9-7-6-|
g|6---------------|--6-------------|--6-------------|--6-------------|
d|----------------|----------------|----------------|----------------|
a|----------------|----------------|----------------|----------------|
e|----------------|----------------|----------------|----------------|

  1 & 2 & 3 & 4 &  1 & 2 & 3 & 4 &  1 & 2 & 3 & 4 &  1 & 2 & 3 & 4 &
e|----------------|----------------|----------------|----------------|
b|----9---7-9---6-|----9---7-9---6-|----9---7-9---6-|----9---6-7-9-7-|
g|6---------------|--6-------------|--6-------------|--6-------------|
d|----------------|----------------|----------------|----------------|
a|----------------|----------------|----------------|----------------|
e|----------------|----------------|----------------|----------------|

VERSE 1

  1 & 2 & 3 & 4 &  1 & 2 & 3 & 4 &  1 & 2 & 3 & 4 &  1 & 2 & 3 & 4 &
e|----------------|----------------|----------------|----------------|
b|2-4-2-4-2-4-2-4-|2-4-2-4-2-4-2-4-|2-4-2-4-2-4-2-4-|2-4-2-4-2-4-2-4-|
g|----------------|----------------|----------------|----------------|
d|----------------|----------------|----------------|----------------|
a|----------------|----------------|----------------|----------------|
e|----------------|----------------|----------------|----------------|

  1 &  2 &  3 &  4 &  1 &  2 &  3 &  4 &  
e|9-11-9-11-9-11-9-11|9-11-9-11-9-11-9-11|
b|-------------------|-------------------|
g|-------------------|-------------------|
d|-------------------|-------------------|
a|-------------------|-------------------|
e|-------------------|-------------------|

  1  &  2  &  3  &  4  &   1  &  2  &  3  &  4  &
e|14/16-------------14/16-|------------14/16-------|
b|---------16\14----------|---16\14----------16\14-|
g|------------------------|------------------------|
d|------------------------|------------------------|
a|------------------------|------------------------|
e|------------------------|------------------------|

  1 & 2 & 3 & 4 &  1 & 2 & 3 & 4 &  1 & 2 & 3 & 4 &  1 & 2 & 3 & 4 &
e|----------------|----------------|----------------|----------------|
b|----------------|----------------|----------------|----------------|
g|----------------|----------------|----------------|----------------|
d|----------------|----------------|----------------|----------------|
a|----------------|----------------|----------------|----------------|
e|----------------|----------------|----------------|----------------|

  1 & 2 & 3 & 4 &  1 & 2 & 3 & 4 &  1 & 2 & 3 & 4 &  1 & 2 & 3 & 4 &
e|----------------|----------------|----------------|----------------|
b|----9---7-9---6-|----9---7-9---6-|----9---7-9---6-|----9---7-9-7-6-|
g|6---------------|--6-------------|--6-------------|--6-------------|
d|----------------|----------------|----------------|----------------|
a|----------------|----------------|----------------|----------------|
e|----------------|----------------|----------------|----------------|

CHORUS

  1 & 2 & 3 & 4 &  1 & 2 & 3 & 4 &  1 & 2 & 3 & 4 &  1 & 2 & 3 & 4 &
e|----------------|----------------|----------------|----------------|
b|4-4-4/6-6-6-6-6-|6-6-6-6-6-6-6\4-|4-4-4/6-6-6-6-6-|6-6-6-6-6-6-6\4-|
g|----------------|----------------|----------------|----------------|
d|----------------|----------------|----------------|----------------|
a|----------------|----------------|----------------|----------------|
e|----------------|----------------|----------------|----------------|

  1 & 2 & 3 & 4 &  1 & 2 & 3 & 4 &  1 & 2 & 3 & 4 &  1 & 2 & 3 & 4 &
e|----------------|----------------|----------------|----------------|
b|4-4-4/6-6-6-6-6-|6-6-6-6-6-6-6\4-|4-4-4/6-6-6-6-6-|6-6-6-6-6-6-6\4-|
g|----------------|----------------|----------------|----------------|
d|----------------|----------------|----------------|----------------|
a|----------------|----------------|----------------|----------------|
e|----------------|----------------|----------------|----------------|

  1 & 2 & 3 & 4 &  1 & 2 & 3 & 4 &  1 & 2 & 3 & 4 &  1 & 2 & 3 & 4 &
e|----------------|----------------|----------------|----------------|
b|4-4-4/6-6-6-6-6-|6-6-6-6-6-6-6\4-|4-4-4/6-6-6-6-6-|6-6-6-6-6-6-6\4-|
g|----------------|----------------|----------------|----------------|
d|----------------|----------------|----------------|----------------|
a|----------------|----------------|----------------|----------------|
e|----------------|----------------|----------------|----------------|

  1 & 2 & 3 & 4 &  1 & 2 & 3 & 4 &  1 & 2 & 3 & 4 &  1 & 2 & 3 & 4 &
e|----------------|----------------|----------------|----------------|
b|4-4-4-4-4-4-4-4-|4-4-4-4-4-4-4-4\|2-2-2-2-2-2-2-2-|2-2-2-2-2-2-2-2/|
g|----------------|----------------|----------------|----------------|
d|----------------|----------------|----------------|----------------|
a|----------------|----------------|----------------|----------------|
e|----------------|----------------|----------------|----------------|

INTERLUDE

  1 & 2 & 3 & 4 &  1 & 2 & 3 & 4 &  1 & 2 & 3 & 4 &  1 & 2 & 3 & 4 &
e|----------------|----------------|----------------|----------------|
b|9-9-9-9-9-9-9-9-|9-9-9-9-9-9-9-9-|9\2-2-2-2-2-2-2-|2-2-2-2-2-2-2-2-|
g|----------------|----------------|----------------|----------------|
d|----------------|----------------|----------------|----------------|
a|----------------|----------------|----------------|----------------|
e|----------------|----------------|----------------|----------------|

  1 & 2 & 3 & 4 &  1 & 2 & 3 & 4 &  1 & 2 & 3 & 4 &  1 & 2 & 3 & 4 &
e|----------------|----------------|----------------|----------------|
b|2/9-9-9-9-9-9-9-|9-9-9-9-9-9-9-9-|9\2-2-2-2-2-2-2-|2/4-4-4-4\2-2-2-|
g|----------------|----------------|----------------|----------------|
d|----------------|----------------|----------------|----------------|
a|----------------|----------------|----------------|----------------|
e|----------------|----------------|----------------|----------------|

  1 & 2 & 3 & 4 &  1 & 2 & 3 & 4 &  1 & 2 & 3 & 4 &  1 & 2 & 3 & 4 &
e|----------------|----------------|----------------|----------------|
b|2/9-9-9-9-9-9-9-|9-9-9-9-9-9-9-9-|9\2-2-2-2-2-2-2-|2/4-4-4-4\2-2-2-|
g|----------------|----------------|----------------|----------------|
d|----------------|----------------|----------------|----------------|
a|----------------|----------------|----------------|----------------|
e|----------------|----------------|----------------|----------------|

  1 & 2 & 3 & 4 &  1 & 2 & 3 & 4 &  1 & 2 & 3 & 4 &  1 & 2 & 3 & 4 &
e|----------------|----------------|----------------|----------------|
b|2/9-9-9-9-9-9-9-|9-9-9-9-9-9-9-9-|9\2-2-2-2-2-2-2-|2/4-4-4-4\2-2-2-|
g|----------------|----------------|----------------|----------------|
d|----------------|----------------|----------------|----------------|
a|----------------|----------------|----------------|----------------|
e|----------------|----------------|----------------|----------------|


VERSE 2

  1 & 2 & 3 & 4 &  1 & 2 & 3 & 4 &  1 & 2 & 3 & 4 &  1 & 2 & 3 & 4 &
e|2-----1---------|2-----1---------|2-----1---------|2-----1-----1---|
b|----------2-----|----------2-----|----------2-----|----------2---2-|
g|----------------|----------------|----------------|----------------|
d|----------------|----------------|----------------|----------------|
a|----------------|----------------|----------------|----------------|
e|----------------|----------------|----------------|----------------|

  1 & 2 & 3 & 4 &  1 & 2 & 3 & 4 &  1 & 2 & 3 & 4 &  1 & 2 & 3 & 4 &
e|2-----1---------|4---2-1---------|2-----1---------|4---2-1---------|
b|----------2-----|----------2-----|----------2-----|----------2-----|
g|----------------|----------------|----------------|----------------|
d|----------------|----------------|----------------|----------------|
a|----------------|----------------|----------------|----------------|
e|----------------|----------------|----------------|----------------|

  1 & 2 & 3 & 4 &  1 & 2 & 3 & 4 &  1 & 2 & 3 & 4 &  1 & 2 & 3 & 4 &
e|----------------|----------------|----------------|----------------|
b|2-4-2-4-2-4-2-4-|2-4-2-4-2-4-2-4-|2-4-2-4-2-4-2-4-|2-4-2-4-2-4-2-4-|
g|----------------|----------------|----------------|----------------|
d|----------------|----------------|----------------|----------------|
a|----------------|----------------|----------------|----------------|
e|----------------|----------------|----------------|----------------|

  1 & 2 & 3 & 4 &  1 & 2 & 3 & 4 &  1 & 2 & 3 & 4 &  1 & 2 & 3 & 4 &
e|----------------|----------------|----------------|----------------|
b|----9---7-9---6-|----9---7-9---6-|----9---7-9---6-|----9---7-9-7-6-|
g|6---------------|--6-------------|--6-------------|--6-------------|
d|----------------|----------------|----------------|----------------|
a|----------------|----------------|----------------|----------------|
e|----------------|----------------|----------------|----------------|

CHORUS

  1 & 2 & 3 & 4 &  1 & 2 & 3 & 4 &  1 & 2 & 3 & 4 &  1 & 2 & 3 & 4 &
e|----------------|----------------|----------------|----------------|
b|4-4-4/6-6-6-6-6-|6-6-6-6-6-6-6\4-|4-4-4/6-6-6-6-6-|6-6-6-6-6-6-6\4-|
g|----------------|----------------|----------------|----------------|
d|----------------|----------------|----------------|----------------|
a|----------------|----------------|----------------|----------------|
e|----------------|----------------|----------------|----------------|

  1 & 2 & 3 & 4 &  1 & 2 & 3 & 4 &  1 & 2 & 3 & 4 &  1 & 2 & 3 & 4 &
e|----------------|----------------|----------------|----------------|
b|4-4-4/6-6-6-6-6-|6-6-6-6-6-6-6\4-|4-4-4/6-6-6-6-6-|6-6-6-6-6-6-6\4-|
g|----------------|----------------|----------------|----------------|
d|----------------|----------------|----------------|----------------|
a|----------------|----------------|----------------|----------------|
e|----------------|----------------|----------------|----------------|

  1 & 2 & 3 & 4 &  1 & 2 & 3 & 4 &  1 & 2 & 3 & 4 &  1 & 2 & 3 & 4 &
e|----------------|----------------|----------------|----------------|
b|4-4-4/6-6-6-6-6-|6-6-6-6-6-6-6\4-|4-4-4/6-6-6-6-6-|6-6-6-6-6-6-6\4-|
g|----------------|----------------|----------------|----------------|
d|----------------|----------------|----------------|----------------|
a|----------------|----------------|----------------|----------------|
e|----------------|----------------|----------------|----------------|

  1 & 2 & 3 & 4 &  1 & 2 & 3 & 4 &  1 & 2 & 3 & 4 &  1 & 2 & 3 & 4 &
e|----------------|----------------|----------------|----------------|
b|4-4-4-4-4-4-4-4-|4-4-4-4-4-4-4-4\|2-2-2-2-2-2-2-2-|2-2-2-2-2-2-2-2/|
g|----------------|----------------|----------------|----------------|
d|----------------|----------------|----------------|----------------|
a|----------------|----------------|----------------|----------------|
e|----------------|----------------|----------------|----------------|

CHORUS

  1 & 2 & 3 & 4 &  1 & 2 & 3 & 4 &  1 & 2 & 3 & 4 &  1 & 2 & 3 & 4 &
e|----------------|----------------|----------------|----------------|
b|9-9-9-9-9-9-9-9-|9-9-9-9-9-9-9-9-|9\2-2-2-2-2-2-2-|2-2-2-2-2-2-2-2-|
g|----------------|----------------|----------------|----------------|
d|----------------|----------------|----------------|----------------|
a|----------------|----------------|----------------|----------------|
e|----------------|----------------|----------------|----------------|

  1 & 2 & 3 & 4 &  1 & 2 & 3 & 4 &  1 & 2 & 3 & 4 &  1 & 2 & 3 & 4 &
e|----------------|----------------|----------------|----------------|
b|2/9-9-9-9-9-9-9-|9-9-9-9-9-9-9-9-|9\2-2-2-2-2-2-2-|2/4-4-4-4\2-2-2-|
g|----------------|----------------|----------------|----------------|
d|----------------|----------------|----------------|----------------|
a|----------------|----------------|----------------|----------------|
e|----------------|----------------|----------------|----------------|

  1 & 2 & 3 & 4 &  1 & 2 & 3 & 4 &  1 & 2 & 3 & 4 &  1 & 2 & 3 & 4 &
e|----------------|----------------|----------------|----------------|
b|2\9-9-9-9-9-9-9-|9-9-9-9-9-9-9-9-|9\2-2-2-2-2-2-2-|2-2-2-2-2-2-2-2/|
g|----------------|----------------|----------------|----------------|
d|----------------|----------------|----------------|----------------|
a|----------------|----------------|----------------|----------------|
e|----------------|----------------|----------------|----------------|

  1 & 2 & 3 & 4 &  1 & 2 & 3 & 4 &  1 & 2 & 3 & 4 &  1 & 2 & 3 & 4 &
e|----------------|----------------|----------------|----------------|
b|4-4-4-4-4-4-4-4-|4-4-4-4-4-4-4-4/|6-6-6-6-6-6-6-6-|7-7-7-7-7-7-6-5-|
g|----------------|----------------|----------------|----------------|
d|----------------|----------------|----------------|----------------|
a|----------------|----------------|----------------|----------------|
e|----------------|----------------|----------------|----------------|


OUTRO/SOLO

  1 & 2 & 3 & 4 &  1 & 2 & 3 & 4 &  1 & 2 & 3 & 4 &  1  &  2  &  3  &  4 &
e|----------------|----------------|----------------|-----------------------|
b|----9---7-9---6-|----9---7-9---6-|----9---7-9---6-|------9--9-11-11-11-11-|
g|6---------------|--6-------------|--6-------------|---6-------------------|
d|----------------|----------------|----------------|-----------------------|
a|----------------|----------------|----------------|-----------------------|
e|----------------|----------------|----------------|-----------------------|

  1  &  2  &  3  &  4  &   1  &  2  &  3  &  4  &
e|------------------------|------------------------|
b|11-14-14-14-14-14-14-14-|14-11-11-11-11-11-11-11-|
g|------------------------|------------------------|
d|------------------------|------------------------|
a|------------------------|------------------------|
e|------------------------|------------------------|

  1  &  2  &  3  &  4  &   1  &  2  &  3  &  4  &
e|------------------------|---------------14-14-14-|
b|14-14-14-14-14-14-14-14-|14-11-11-11-11----------|
g|------------------------|------------------------|
d|------------------------|------------------------|
a|------------------------|------------------------|
e|------------------------|------------------------|

  1  &  2  &  3  &  4  &   1  &  2  &  3  &  4  &
e|14-13----14-13----13-14-|14-13----14-13----13-14-|
b|------14-------14-------|------14-------14-------|
g|------------------------|------------------------|
d|------------------------|------------------------|
a|------------------------|------------------------|
e|------------------------|------------------------|

  1  &  2  &  3  &  4  &   1  &  2  &  3  &  4  &
e|16-------16-------16----|---16-------16----16----|
b|---14-14----14-14----14-|14----14-14----14----14-|
g|------------------------|------------------------|
d|------------------------|------------------------|
a|------------------------|------------------------|
e|------------------------|------------------------|

  1  &  2  &  3  &  4  &   1  &  2  &  3  &  4  &
e|16-------16-------16----|---16-------16----16----|
b|---14-14----14-14----14-|14----14-14----14----14-|
g|------------------------|------------------------|
d|------------------------|------------------------|
a|------------------------|------------------------|
e|------------------------|------------------------|

  1  &  2  &  3  &  4  &   1  &  2  &  3  &  4  &
e|14-14-14-13-13-13-------|------------------------|
b|------------------14-14-|14-16-16-16-14-14-14/---|
g|------------------------|------------------------|
d|------------------------|------------------------|
a|------------------------|------------------------|
e|------------------------|------------------------|

  1 & 2 & 3 & 4 &  1 & 2 & 3 & 4 &  1 & 2 & 3 & 4 &  1 & 2 & 3 & 4 &
e|----------------|----------------|----------------|----------------|
b|----9---7-9---6-|----9---7-9---6-|----9---7-9---6-|----9---7-9-7-6-|
g|6---------------|--6-------------|--6-------------|--6-------------|
d|----------------|----------------|----------------|----------------|
a|----------------|----------------|----------------|----------------|
e|----------------|----------------|----------------|----------------|

  1 & 2 & 3 & 4 &  1 & 2 & 3 & 4 &  1 & 2 & 3 & 4 &  1 & 2 & 3 & 4 &
e|----------------|----------------|----------------|----------------|
b|----------------|----------------|----------------|----------------|
g|6---------------|----------------|----------------|----------------|
d|----------------|----------------|----------------|----------------|
a|----------------|----------------|----------------|----------------|
e|----------------|----------------|----------------|----------------|


| /  slide up
| \  slide down
| h  hammer-on
| p  pull-off
| ~  vibrato
| +  harmonic
| x  Mute note
Suggest correction
Give kudos to tab author, rate the tab!
1 2 3 4 5
comments
print report bad tab
guest
You may want to rate the tab now too:
select rating
Wanna post a correction for this tab? Suggest correction