Oops, an error
Loading. Please wait.

On Your Way tab

version 1
version 1

Whole song

88 views 1 this week
no commentswrite comment
1 2 3 4 5
3 more votes to show rating
add to favorites
×
Save as Personal and add changes to this tab that will be seen only by you. Learn more ›
×
You can save this tab as Personal to edit and correct it or add notes. All changes will be seen only by you. Learn more »
launch autoscroll
font size
0
reset
how to read this tab
guitar tuner
edit
Autoscroll
slow
fast
+/-
esc
set tempo
stop
On Your Way
From the album In a Safe Place


[Intro]

   Asus2         A                 Asus2         A                 
e|-------------|-----------------|-------------|-----------------|
B|-------------|------------2----|-------------|------------2----|
G|-------4-----|-------4--2------|-------4-----|-------4--2------|
D|---2h4-------|---2h4-----------|---2h4-------|---2h4-----------|
A|-0-----------|-0---------------|-0-----------|-0---------------|
E|-------------|-----------------|-------------|-----------------|

   Asus2                     A                           Asus2                     A
e|-----------------------2-|---------------------------|-----------------------2-|---------------------------|
B|-----------2-2-2-2-------|------------2--------------|-----------2-2-2-2-------|------------2--------------|
G|-------4-----------4-----|-------4--2----4-4-4-4-2---|-------4-----------4-----|-------4--2----4-4-4-4-2---|
D|---2h4-------------------|---2h4-------------------4-|---2h4-------------------|---2h4-------------------4-|
A|-0-----------------------|-0-------------------------|-0-----------------------|-0-------------------------|
E|-------------------------|---------------------------|-------------------------|---------------------------|

   Bm                 A                      Bm                  A
e|------------5-2---|----------------------|-------------------|--------------|
B|----------------5-|------------2---------|-------------3-----|------------2-|
G|-------4----------|-------4--2-----4-2h4-|-------4-2-------4-|-------4--2---|
D|---2h4------------|---2h4----------------|---2h4-------------|---2h4--------|
A|-2----------------|-0--------------------|-2-----------------|-0------------|
E|------------------|----------------------|-------------------|--------------|


[Verse 1]

   Asus2                               A                 
e|-----------------------------------|---------------------|
B|-----------------------------------|-------------------2-|
G|----------4------------------------|---------4----2------|
D|----2h4----------------------------|----2h4--------------|
A|-0---------------------------------|-0-------------------|
E|-----------------------------------|---------------------|
  You were sewn to the ground, so you cut the wires of lead

        Asus2                            A                      
e|------------------------------------|------------------|
B|------------------------------------|----------------2-|
G|------------4-----------------------|---------4--2-----|
D|--------2h4-------------------------|----2h4-----------|
A|------0-----------------------------|--0---------------|
E|------------------------------------|------------------|
  You swim against the tide, yet you   drowned in the sky

        Asus2                                   A                 
e|-----------------------------------------2-|------------------------------------------|
B|-------------------------------2-2-2-2-----|-------------------------2----------------|
G|--------------4------------------------4---|-------------4-----2----------4-4-4-4-2---|
D|---------2h4-------------------------------|--------2h4-----------------------------4-|
A|------0------------------------------------|--0---------------------------------------|
E|-------------------------------------------|------------------------------------------|
  You whispered to make a sound,     and you  crawled to reach  the ground

        Asus2                                A                 
e|---------------------------------------2-|------------------------------------|
B|-----------------------------2-2-2-2-----|-------------------2----------------|
G|--------------4----------------------4---|---------4----2---------4-4-4-4-2---|
D|---------2h4-----------------------------|-----2h4--------------------------4-|
A|------0----------------------------------|-0----------------------------------|
E|-----------------------------------------|------------------------------------|
  You held your head up high,      yet you  duck beneath the clouds


[Chorus]

       Bm                     A                    Bm                      A
e|--------------------------|-------------------|------------------------|--------------|
B|--------------------------|------------2------|------------------------|------------2-|
G|------------4-2-----------|-------4--2------2-|--------4-2-------------|-------4--2---|
D|--------2h4---------------|---2h4-------------|----2h4-----------------|---2h4--------|
A|-----2--------------------|-0-----------------|--2---------------------|-0------------|
E|--------------------------|-------------------|------------------------|--------------|
   And you         are on your way                 You         are on your way


[Interlude]

Strum A chords for both bars or pick the following:

   A6          Amaj7
e|-------2-|----------------9-|
B|-----2---|-----------9-10---|
G|---2-----|--------9---------|
D|-2-------|-----7------------|
A|---------|---0--------------|
E|---------|------------------|


[Verse 2]

   Asus2                           A                 
e|-------------------------------|----------------------|
B|-------------------------------|-----------------2----|
G|----------4--------------------|---------4----2-------|
D|----2h4------------------------|----2h4---------------|
A|-0-----------------------------|-0--------------------|
E|-------------------------------|----------------------|
      This one was locked, closed down    and  refrained

       Asus2                        A
e|--------------------------------|--------------------|
B|--------------------------------|-----------------2--|
G|-----------4--------------------|----------4--2------|
D|-------2h4----------------------|-----2h4------------|
A|-----0--------------------------|-0------------------|
E|--------------------------------|--------------------|
  you tore through the glass,   no one could understand

          Asus2                             A 
e|--------------------------------------2-|------------------------------------|
B|----------------------------2-2-2-2-----|---------------------2--------------|
G|-------------------4----------------4---|-------------4-----2----4-4-4-4-2---|
D|-----------2h4--------------------------|-------2h4------------------------4-|
A|--------0-------------------------------|-0----------------------------------|
E|----------------------------------------|------------------------------------|
  as you pushed them all away,      you    made   them  all  return

     Asus2                               A
e|-----------------------------------2-|-----------------------------------------|
B|-------------------------2-2-2-2-----|------------------------2----------------|
G|-----------4---------------------4---|-------------4-----2---------4-4-4-4-2---|
D|------2h4----------------------------|-------2h4-----------------------------4-|
A|---0---------------------------------|-0---------------------------------------|
E|-------------------------------------|-----------------------------------------|
   this one was overcome,      yet you  lost         in   the  end


[Chorus]

       Bm                     A                    Bm                      A
e|--------------------------|-------------------|------------------------|--------------|
B|--------------------------|------------2------|------------------------|------------2-|
G|------------4-2-----------|-------4--2------2-|--------4-2-------------|-------4--2---|
D|--------2h4---------------|---2h4-------------|----2h4-----------------|---2h4--------|
A|-----2--------------------|-0-----------------|--2---------------------|-0------------|
E|--------------------------|-------------------|------------------------|--------------|
   Now you         are on your way                 And you         are on your way

      Bm                     A                    Bm                      A
e|-------------------------|-------------------|------------------------|--------------|
B|-------------------------|------------2------|------------------------|------------2-|
G|-----------4-2-----------|-------4--2------2-|--------4-2-------------|-------4--2---|
D|-------2h4---------------|---2h4-------------|----2h4-----------------|---2h4--------|
A|----2--------------------|-0-----------------|--2---------------------|-0------------|
E|-------------------------|-------------------|------------------------|--------------|
      You         are on your way                 You         are on your way

[OUTRO - *SLOWLY]

   Asus2      *-------------] A              *-----------] Asus2      *-------------] A 
e|------------------------2-|----------------------------|------------------------2-|---------------|
B|------------2-2-2-2-------|------------2---------------|------------2-2-2-2-------|------------2--|
G|-------4------------4-----|-------4--2-----4-4-4-4-2---|-------4------------4-----|-------4--2----|
D|---2h4--------------------|---2h4--------------------4-|---2h4--------------------|---2h4---------|
A|-0------------------------|-0--------------------------|-0------------------------|-0-------------|
E|--------------------------|----------------------------|--------------------------|---------------|
                                                                                                        
                *-----------]
e|------------|-------------|
B|------------|-------------|
G|------------|-4-4-4-4-2---|
D|---[REST]---|-----------4-|
A|------------|-------------|
E|------------|-------------|



************************************

| h  Hammer-on

************************************

            
            
Suggest correction
Creating personal tab
Creating personal tab
You can edit any tab online and save it as your Personal.

You can edit, replace or remove any tab part or add personal notes – all changes will be seen only by you.

Personal tabs can be accessed anytime from any device, even offline.
Learn more »
Give kudos to tab author, rate the tab!
1 2 3 4 5
comments
print report bad tab
guest
You may want to rate the tab now too:
select rating
Wanna post a correction for this tab? Suggest correction