Oops, an error
Loading. Please wait.

Streamside tab

version 1
version 1

Whole song

9,512 views 1 this week
1 commentread comment
1 2 3 4 5
1 last vote to show rating
add to favorites
×
Save as Personal and add changes to this tab that will be seen only by you. Learn more ›
×
You can save this tab as Personal to edit and correct it or add notes. All changes will be seen only by you. Learn more »
launch autoscroll
font size
0
reset
how to read this tab
guitar tuner
edit
Autoscroll
slow
fast
+/-
esc
set tempo
stop
Difficulty
intermediate
---------------------Streamside by The Album Leaf---------------------------

Verse:
e--------------------------------2-------2-0------------|
b---0---3----------2---3---------3-3---3---2--2----2----|
g-2---2---2---2--2---2----2---2------------2-----2------|
d-0--------------2--------------------------------------|
a----------------0-----0----0----2---2-----0----0-------|
E-3-----3---3-------------------------------------------|

e--------------------------------2-------2---5-------5--|
b---0---3---------------3--------3-3---3-----3-3-----3--|
g-2---2---2---2--0-h2-----2---2--------------2-----2----|
d-0--------------0-------------------------0-----0------|
a--------------------------------2---2------------------|
E-3-----3---3----2----2-----2---------------------------|

Chorus:

e----------------------2-h3----3----3----3s5---5---5---5-h7---7---7---|
b--3-h5-3-----5-h7----------------------------------------------------|
g----------------------0-------0----0----0-----0---0---0------0---0---|
d--4----4-----7-------------------------------------------------------|
a--2------2---0----0--------------------------------------------------|
E----------------------3-----3----3---3--0---0---0---0-3----3---3---3-|

the second time, instead of that last G, play:

e-3-p2---2---2-|
b--------------|
g-0------0---0-|
d--------------|
a--------------|
E-3----3---3---|

h is a hammer on
s is a slide
p is a pull off


They play something different during the part with the accordian, but I haven't been
to figure it out yet.

If you figure that part out contact me because I'd like to know how to play that part:
sportsmaniak286@aol.com

            
            
Suggest correction
Creating personal tab
Creating personal tab
You can edit any tab online and save it as your Personal.

You can edit, replace or remove any tab part or add personal notes – all changes will be seen only by you.

Personal tabs can be accessed anytime from any device, even offline.
Learn more »
Give kudos to tab author, rate the tab!
1 2 3 4 5
comments
print report bad tab
1 comment total.
0 reply
techrolla 50 Sep 08, 2007 01:30 PM

There's a tab for this from album leaf themselves on their myspace blog:
http://blog.myspace.com/index.cfm?fuseaction=blog.ListAll&friendID=3285959

guest
Wanna post a correction for this tab? Suggest correction