Oops, an error
Loading. Please wait.

1111 Pm Bass Tab

version 1
version 1

Whole song

1,145 views 1 this week
4 commentsread comments
1 2 3 4 5
not so good
x 3
add to favorites
launch autoscroll
font size
0
reset
guitar tuner
Tab Pro tools
  • play this tab
  • loop segment
  • change instrument
  • show fretboard
  • metronome
Autoscroll
slow
fast
+/-
esc
set tempo
stop
Difficulty
intermediate
hey. here it is. a great song. it was bugging me that no one else tabbed it. it took me 
while and may not be 100% accurate, but sounds great1! Later

Drop D tuning
~ = RING

Intro
G|------------------------------------------|
D|------------------------------------------|
A|------------------------------------------|
D|--44444444-11111111-0~-444444444-33333333-|

G|-------------|
D|-------------|
A|-------------|
D|--4~--1~--0~-|

Verse
G|--------------------------------------|
D|--------------------------------------|
A|--------------------------------------|  2x 2nd time play 7 instead of 6
D|--00000000-33333333-55555555-66666666-|

G|-------------------------------------|
D|-------------------------------------|
A|-------------------------------------|
D|--0-0000--0-3333--3-5555--5-77776~6~-|

G|----------------------------------------|
D|----------------------------------------|
A|----------------------------------------|
D|--0-0000--0-3333--3-55555555-7778889999-|

Chorus
G|----------------------------------|
D|----------------------------------|
A|--0~2222222-----------------------| 3x
D|------------(9)\55555555333333333-|

Verse
Chorus

Bridge part 1
G|----------------------------------------------------------------|
D|----------------------------------------------------------------|
A|-000000000000000002222222222222222------------------------------|
D|---------------------------------555555555555555333333333333333-|

Part 2
G|-----------------------------------------------------------------------|
D|-----------------------------------------------------------------------|
A|-----------------------------------------------------------------------|
D|--00000~--33333~--55555~--77777~--00000~--33333~--55555~--7~-777888999-|


Chorus no bass in first half
G|----------------------------|
D|----------------------------|
A|----------------------------|
D|--(5)/(9)\5555555533333333--|

G|----------------------------------|
D|----------------------------------|
A|--0~2222222-----------------------| 2x
D|------------(9)\55555555333333333-|

Outro
G|---------------------------------------------------------|
D|---------------------------------------------------------|
A|--00000000000000002222222222222222-----------------------|
D|----------------------------------55555555555555555--6~--|

Thanks and please rate
comments
We did not receive enough feedback on this tab! Please rate:
print report bad tab
1 2 3 4 5
4 comments total. Showing first comments.
0 reply
lil-miss wrote on August 2 2006, 04:07 pm

Hey, This is an alright tab. wwell done. i've ben trying to tab it for ages on Bass without success. lol. i guess i suck

0 reply
china_dweller wrote on January 4 2009, 08:57 pm

this is not intermediate!!!!!!!!!!!!!!!

0 reply
china_dweller wrote on January 4 2009, 08:58 pm

and it kinda sucks

I want to post or [tab]
guest
You may want to rate the tab now too:
select rating
Please do not post tabs as comments. Select "correction" instead!