Oops, an error
Loading. Please wait.

1111 Pm Bass Tab

version 2
version 2

Whole song

844 views 1 this week
no commentswrite comment
1 2 3 4 5
accurate
x 4
add to favorites
launch autoscroll
font size
0
reset
guitar tuner
Tab Pro tools
  • play this tab
  • loop segment
  • change instrument
  • show fretboard
  • metronome
×
Best way to learn
"1111 Pm"
Autoscroll
slow
fast
+/-
esc
set tempo
stop
Contributor
Difficulty
Tuning
novice
D A D G B E
-------------------------------------------------------------------------------
			     11:11 P.M. - The All-American Rejects
-------------------------------------------------------------------------------

Tabbed By : Beato413
Tuning:Drop D
Rate Please!

Intro:
G|--------------------------------------------------------------------------|
D|--------------------------------------------------------------------------|
A|-------------------------4444444444444444---------------------------7-5-0-|
D|1~---66666666--33333333--------------------66666666--333333333-4~---------|

Verse:
G|---------------------------------------|
D|---------------------------------------|
A|11111111-33333333-44444444-66666666----|
D|---------------------------------------|

G|---------------------------------------|
D|---------------------------------------|
A|11111111-33333333-44444444-------------|
D|---------------------------11111111----|

Pre-Chorus:
G|------------------------------------------------------|
D|------------------------------------------------------|
A|------------11111-555-7-------------11111111-2-3-4----|
D|44444-66666-------------44444-66666-------------------|

Chorus:
G|--------------------------------------|
D|--------------------------------------| X2
A|4444444444444444----------------------|
D|-----------------66666666-33333333----|

G|--------------------------------------|
D|--------------------------------------|
A|--------------------------------------|
D|1111111111111111-66666666-33333333----|

Verse:
G|---------------------------------------|
D|---------------------------------------|
A|11111111-33333333-44444444-66666666----|
D|---------------------------------------|

G|---------------------------------------|
D|---------------------------------------|
A|11111111-33333333-44444444-------------|
D|---------------------------11111111----|

Pre-Chorus:
G|------------------------------------------------------|
D|------------------------------------------------------|
A|------------11111-555-7-------------11111111-2-3-4----|
D|44444-66666-------------44444-66666-------------------|

Chorus:
G|--------------------------------------|
D|--------------------------------------| X2
A|4444444444444444----------------------|
D|-----------------66666666-33333333----|

G|--------------------------------------|
D|--------------------------------------|
A|--------------------------------------|
D|1111111111111111-66666666-33333333----|

Bridge:
G|------------------------------------------------------------|
D|------------------------------------------------------------|
A|------------------------------------------------------------|
D|4444444444444444-3333333333333333-1111111111111111-1-1-1----|

Pre-Chorus:
G|------------------------------------------------------|
D|------------------------------------------------------|
A|------------11111-555-7-------------11111111-2-3-4-5--|
D|44444-66666-------------44444-66666-------------------|

Chorus: 
G|--------------------------------------------------------|
D|--------------------------------------------------------|
A|------------------4444444444444444----------------------|
D|66666666-33333333------------------66666666-33333333----|

G|--------------------------------------|
D|--------------------------------------|
A|--------------------------------------|
D|1111111111111111-66666666-33333333----|

Outro:
G|-------------------------------------------------------------|
D|-------------------------------------------------------------|
A|-------------------------------------------------------4~----|
D|4444444444444444-3333333333333333-1111111111111111-1-1-------|
comments
print report bad tab
I want to post or [tab]
guest
You may want to rate the tab now too:
select rating
Please do not post tabs as comments. Select "correction" instead!