Oops, an error
Loading. Please wait.

Another Heart Calls Bass Tab

version 2
version 2

Whole song

Interactive

621 views 1 this week
no commentswrite comment
1 2 3 4 5
not so good
x 1
add to favorites
launch autoscroll
font size
0
reset
guitar tuner
Tab Pro tools
  • play this tab
  • loop segment
  • change instrument
  • show fretboard
  • metronome
Autoscroll
slow
fast
+/-
esc
set tempo
stop
Difficulty
intermediate
Tabbed by javi_bassist (javi_chavi_watson@hotmail.com)

Tunning: Standard

Intro: Bass comes in at 0:06
G |---------------------------------------------|
D |---------------------------------------------|
A |---5------------------------5----------------|
E |---------------1----------------------1------|


Pre-Chorus: 0:58
G |---------------------------------------------|
D |---------------------------------------------|
A |11111111--------333333333333555/7-11111111---|
E |--------55555555-----------------------------|

G |---------------------------------------------|
D |---------------------------------------------|
A |--------3333333333333333---------------------|
E |11111111-------------------------------------|


Chorus: 1:11 (Listen to it for timing) 
G |---------------------------------------------|
D |---------------------------------------------|
A |-5---------3----3----5---------3----3--------|
E |------1-------------------1------------------|


Verse: 1:31 
G |--------|
D |--------|
A |--55----|
E |--------|

G |---------------------------------------------|  X3
D |---------------------------------------------|
A |5555-555-----------3333-3333333-333----------|
E |-----------1111-111--------------------------|


Pre-Chorus 1:51

G |---------------------------------------------|
D |---------------------------------------------|
A |11111111--------333333333333555/7------------|
E |--------00000000-----------------------------|

(They are 10's at the end)
G |---------------------------------------------|
D |---------------------------------------------|
A |11111111--------333333333/1010101010101010---|
E |--------11111111-----------------------------|

Chorus 2:03 (Be careful with the two first notes in each compass.
they are longer that the rest.
I've put a / when they are the same note because they are two 
quavers making a black)

G |---------------------------------------------| X6
D |---------------------------------------------|
A |55-5551/11-1110-------3/33-3333--------------|
E |----------------11-111-----------------------|


Bridge 2:41 (the same as in the chorus, the first notes are 
longer)(They are 10's)

G |---------------------------------------------|
D |---------------------------------------------|
A |---------------------------------------------|
E |33-3331/11-1111/1010-1010108/88-8888---------|

G |---------------------------------------------|
D |---------------------------------------------|
A |---------------------------------------------|
E |33-3331/11-1111/88888888---------------------|

2:53
G |-----------|
D |-----------|
A |-1----0----|
E |-----------|

Pre-Chorus 2:56
G |---------------------------------------------|
D |---------------------------------------------|
A |333333333333333311111111--------3~---33------|
E |------------------------11111111-------------|

Chorus 3:06

G |---------------------------------------------| X6
D |---------------------------------------------|
A |55-5551/11-1110-------3/33-3333--------------|
E |----------------11-111-----------------------|

(It is still the chorus but changes because it's 
not the first note)
3:45
G |---------------------------------------------| X1
D |---------------------------------------------|
A |-5-5551/11-1110-------3/33-3333--------------|
E |----------------11-111-----------------------|

G |---------------------------------------------| X1
D |---------------------------------------------|
A |55-5551/11-1110-------3/33-3333--------------|
E |----------------11-111-----------------------|

Outdro (They are 15's, 13's and 12's)

G |---------------------------------------------| 
D |---------------------------------------------|
A |55555555/15151513131312128888888833333333----|
E |---------------------------------------------|

ENJOY

That's it.It took me a lot of time listening to this 
song,but it doesn't matter because it's a great song
.Please rate me and e-mails are welcome because it's 
my first tab and i want to improve.
comments
We did not receive enough feedback on this tab! Please rate:
print report bad tab
1 2 3 4 5
I want to post or [tab]
guest
You may want to rate the tab now too:
select rating
Please do not post tabs as comments. Select "correction" instead!