Oops, an error
Loading. Please wait.

Beekeepers Daughter Bass Tab

2,236 views 1 this week
1 commentread comment
1 2 3 4 5
accurate
x 3
add to favorites
launch autoscroll
font size
0
reset
guitar tuner
Tab Pro tools
  • play this tab
  • loop segment
  • change instrument
  • show fretboard
  • metronome
×
Best way to learn
"Beekeepers Daughter"
Autoscroll
slow
fast
+/-
esc
set tempo
stop
Contributor
Difficulty
intermediate
there is still no tab for this, so I thought I might give it a shot.

Verse (feel the rhythm yourself)

G|------------------------------------------|
D|------------------------------------------| 2x (2nd time don't slide from 12/1 but play 1)
A|------------------------------------------|
E|12/1--1/5--56--56--5\1--1/5--56--56--12/1-|

Prechorus

G|-----------------------------|
D|-----------------------------|
A|5~---54~---43~---32~--1/10~--|
E|-----------------------------|

Chorus (again feel the rhythm)

G|-------------------------------------------------------|
D|-------------------------------------------------------| 2x
A|------3-3--35-5--5/1-131---------3-3--31-131-----------|
E|1-1--1-------------------3-1-1--1------------3-1--12/1-|

After Short rest

Verse

G|------------------------------------------|
D|------------------------------------------| 2x
A|------------------------------------------|
E|12/1--1/5--56--56--5\1--1/5--56--56--12/1-|

Prechorus

G|----------------------------|
D|----------------------------|
A|5~---54~---43~---32~--1/10~-|
E|----------------------------|

Chorus

G|-------------------------------------------------------|
D|-------------------------------------------------------| 2x
A|------3-3--35-5--5/1-131---------3-3--31-131-----------|
E|1-1--1-------------------3-1-1--1------------3-1--12/1-|

Intro Bridge

G|-----------------------|
D|-----------------------|
A|13-1313-10-8--1-11-----|
E|--------------------3-1|

Bridge

G|---------------------------------------|
D|---------------------------------------|
A|5-557---------------5-557--------------|
E|------686-1-11-5-55------686-1-11-5-55-|

Then

G|----------------------------------------------------------|
D|----------------------------------------------------------|
A|0-00-3-33-887755331-11-3-33-5~---54~---43~---32~--1/10~---|
E|----------------------------------------------------------|

Solo

G|-------------------------------------------------------|
D|-------------------------------------------------------|
A|------3-3--35-5--5/1-131---------3-3--3-1133-----------|
E|1-1--1-------------------3-1-1--1------------1-1-1111--|

Chorus

G|----------------------------------------------------------|
D|----------------------------------------------------------| 2x
A|------3-3--35-5--5/1-131---------3-3--31-131--------------|
E|1-1--1-------------------3-1-1--1------------3-1--12/1|---|

Outro

G|--------------------------|
D|--------------------------|
A|13-1313-10-8--1-11--------|
E|--------------------3-1---|
comments
We did not receive enough feedback on this tab! Please rate:
print report bad tab
1 2 3 4 5
1 comment total.
0 reply
stammers101 wrote on April 21 2015, 10:25 am

I want to post or [tab]
guest
You may want to rate the tab now too:
select rating
Please do not post tabs as comments. Select "correction" instead!