Oops, an error
Loading. Please wait.

Beekeepers Daughter Tab

version 1
version 1

Solo

Whole song

9,598 views 12 this week
no commentswrite comment
1 2 3 4 5
accurate
x 4
add to favorites
launch autoscroll
font size
0
reset
how to read this tab
guitar tuner
Tab Pro tools
  • play this tab
  • loop segment
  • change instrument
  • show fretboard
  • metronome
Autoscroll
slow
fast
+/-
esc
set tempo
stop
Contributor
Difficulty
-----------------------------------------------------------------------------
                         Beekeeper's Daughter - All-American Rejects
-----------------------------------------------------------------------------

Tabbed by: XxGuitarZer0xX

Email:     Spongebobs400s@hotmail.com - email me with questions! or comments!

Tuning:    Standard

Key:       F major


Thanks for viewing my tab. I spent a whole day on this. Figure out the strumming pattern 
yourself cause it was too boring to write in tab.Any questions email me. This may be confusing.

Dont forget to rate 5 stars for more tabs in the future





Intro:
e|-1~11---------------1-|
B|-1~11--5~55--3-33-3-1-|
G|-2~22--5~55--3-33-3-2-|
D|-3~33--5~55--3-33-3-3-|
A|-3~33--3~33--1-11-0-3-|
E|-1~11---------------1-|




Verse:
e|-1~1---5~5---6~6--66-6-|
B|-1~1---5~5---6~6--66-6-|
G|-2~2---5~5---7~7--77-7-| Repeats throughout the verses
D|-3~3---7~7---8~8--88-8-|
A|-3~3---7~7---8~8--88-8-|
E|-1~1---5~5---6~6--66-6-|




Pre-Chorus Gtr 1: follows base notes
e|------------------------------------|
B|------------------------------------|
G|-77777777-666666666-55555555-4444-4-|
D|-77777777-777777777-55555555-5555-5-|
A|-55555555-444444444-33333333-2222-5-|
E|----------------------------------3-|
Pm ........ ......... ........ ....

Gtr 2: Nick's part
e|-11111111-111111111-00000000-333333-|
B|-33333333-333333333-11111111-333333-|
G|-22222222-222222222-00000000-000000-|
D|-00000000-xxxxxxxxx-22222222-000000-|
A|----------444444444-33333333-222222-|
E|-----------------------------333333-|
Pm ........ ......... ........ .....




Chorus:
e|-111-----55-66--111------------1-|
B|-111-555-66-66--111-555-3-33-3-1-|
G|-222-555-77-77--222-555-3-33-3-2-|
D|-333-555-77-88--333-555-3-33-3-3-| repeat once
A|-333-333-55-88--333-333-1-11-0-3-|
E|-111--------66--111------------1-|

then play
e|--------1-|
B|-3-33-3-1-|
G|-3-33-3-2-|
D|-3-33-3-3-|
A|-1-11-0-3-|
E|--------1-|




Verse Gtr 1:
e|-1~1---5~5---6~6--66-6-|
B|-1~1---5~5---6~6--66-6-|
G|-2~2---5~5---7~7--77-7-| Repeats throughout the verses
D|-3~3---7~7---8~8--88-8-|
A|-3~3---7~7---8~8--88-8-|
E|-1~1---5~5---6~6--66-6-|

Gtr 2: repeat this until this quick hammer-on/pull off slide. then repeat the first and 
end with the last. (This is only during second verse)
e|---15----13----15----13-|-----------|--13h15p13-|
B|-13----13----13----13---|-----------|-----------|
G|------------------------|-10h12-10/-|-----------|
D|------------------------|-----------|-----------|
A|------------------------|-----------|-----------|
E|------------------------|-----------|-----------|




Pre-Chorus Gtr 1: follows base notes
e|------------------------------------|
B|------------------------------------|
G|-77777777-666666666-55555555-4444-4-|
D|-77777777-777777777-55555555-5555-5-|
A|-55555555-444444444-33333333-2222-5-|
E|----------------------------------3-|
Pm ........ ......... ........ ....

Gtr 2: Nick's part
e|-11111111-111111111-00000000-333333-|
B|-33333333-333333333-11111111-333333-|
G|-22222222-222222222-00000000-000000-|
D|-00000000-xxxxxxxxx-22222222-000000-|
A|----------444444444-33333333-222222-|
E|-----------------------------333333-|
Pm ........ ......... ........ .....




Chorus:
e|-111-----55-66--111------------1-|
B|-111-555-66-66--111-555-3-33-3-1-|
G|-222-555-77-77--222-555-3-33-3-2-|
D|-333-555-77-88--333-555-3-33-3-3-| repeat once
A|-333-333-55-88--333-333-1-11-0-3-|
E|-111--------66--111------------1-|

then play
e|--------1-|
B|-3-33-3-1-|
G|-3-33-3-2-|
D|-3-33-3-3-| then once more
A|-1-11-0-3-|
E|--------1-|




Bridge: You can play power chords on this if you'd like
e|-5555------1111------5555------1111----------------11--------------------|
B|-6666-3333-1111-2222-6666-3333-1111-2222-3333-5555-11-11-66-55-3333-5555-|
G|-7777-3333-2222-2222-7777-3333-2222-2222-3333-5555-22-00-77-55-3333-5555-|
D|-7777-3333-3333-2222-7777-3333-3333-2222-3333-5555-33-22-77-55-3333-5555-|
A|-5555-1111-3333-0000-5555-1111-3333-0000-1111-3333-33-33-55-33-1111-3333-|
E|-----------1111----------------1111----------------11-00-----------------|




Breakdown Gtr 1: Staccato
e|---------------------------------|
B|---------------------------------|
G|-7-7-7-7-6-6-6-6-5-5-5-5-4-4-4-4-|
D|-7-7-7-7-7-7-7-7-5-5-5-5-5-5-5-5-|
A|-5-5-5-5-4-4-4-4-3-3-3-3-2-2-2-5-|
E|-------------------------------3-|

Gtr 2: Staccato
e|-1-1-1-1-0-0-0-0-0-0-0-0-3-3-3-3-|
B|-3-3-3-3-1-1-1-1-1-1-1-1-3-3-3-3-|
G|-2-2-2-2-2-2-2-2-0-0-0-0-0-0-0-0-|
D|-0-0-0-0-2-2-2-2-2-2-2-2-0-0-0-0-|
A|---------0-0-0-0-3-3-3-3-2-2-2-2-|
E|-------------------------3-3-3-3-|




Gtr Solo: GO! Play nice and fluid. Tapping the wah-wah to the downbeat.
e|----------------------------------------------------------------------------13------------|
B|------10------------------------------------------------10-11\13-13p10-13b15--15b13p11/10-|
G|-12b14--14r12p10-------12-----------------10-12b~-10~-12----------------------------------|
D|------------------12\14--14p12/10----10h12------------------------------------------------|
A|---------------------------------12-------------------------------------------------------|
E|------------------------------------------------------------------------------------------|

Gtr Solo: Ending runs. Hold Wah or wah-wah double time.
e|-------------------------------------------------------|
B|-13p11p10h11p10--10------------------------------------|
G|---------------12--12-10------------------10--10-12-10-|
D|------------------------12-10--------10h12--12---------|
A|-----------------------------12-10h12------------------|
E|-------------------------------------------------------|




Chorus:
e|-111-----55-66--111------------1-|
B|-111-555-66-66--111-555-3-33-3-1-|
G|-222-555-77-77--222-555-3-33-3-2-|
D|-333-555-77-88--333-555-3-33-3-3-| repeat once
A|-333-333-55-88--333-333-1-11-0-3-|
E|-111--------66--111------------1-|

then play
e|--------1-|
B|-3-33-3-1-|
G|-3-33-3-2-|
D|-3-33-3-3-| then once more
A|-1-11-0-3-|
E|--------1-|




Outro Gtr 1:
e|-----1~-|
B|-3-3-1~-|
G|-3-3-2~-|
D|-3-3-3~-|
A|-1-0-3~-|
E|-----1~-|

Gtr 2:
e|----------|
B|----------|
G|-3--6--10-|
D|-x--x--x--|
A|-1--4--8--|
E|----------|


Thats all folks. Thanks for viewing my tab. I know its good. Spent a whole day on this. 
Any questions email me. This may be confusing.
comments
print report bad tab
I want to post or [tab]
guest
You may want to rate the tab now too:
select rating
Please do not post tabs as comments. Select "correction" instead!