Oops, an error
Loading. Please wait.

Believe Ukulele Chords

49 views 1 this week
1 commentread comment
1 2 3 4 5
poor
x 2
add to favorites
launch autoscroll
font size
0
reset
transpose
0
reset
- display chords -
guitar tuner
Tab Pro tools
  • play this tab
  • loop segment
  • change instrument
  • show fretboard
  • metronome
Autoscroll
slow
fast
+/-
esc
set tempo
stop
SONG: Believe
ARTIST: The All-American Rejects
ALBUM: When The World Comes Down
Tabbed by Aaron Shim (aaron016)

A good song for beginners. This is probably the best song on the album. It's a bit too pop
for my taste and similar to their first album more than their second.

Intro Chords (figure out strumming yourselves)
e[--0-----0-----0-----0------|
B[--0-----0-----0-----0------|
G[--1-----3-----6-----1------|
D[--2-----4-----7-----2------|
A[--2-----4-----7-----2------|
E[--0-----2-----5-----0------|

Guitar 1 Intro cont.
e[-------------------7-7-7-7-7-7-7-7-7-7----------------7h9-7-7-7-7-7-7-7-7--|
B[---5-5-5-5-5-5-5-5---------------------5-5-5-5-5-5-5-----------------------|
G[---8-8-8b-8b-8b-8b---------------------8-8-8-8b-8b-8b----------------------|
D[---------------------------------------------------------------------------|
A[---------------------------------------------------------------------------|
E[---------------------------------------------------------------------------|


e[-------------------7-7-7-7-7-7-7-7-7-7--------------------------------------|
B[---5-5-5--5--5--5----------------------9b-9b-9b--r9-9-9---------------------|
G[---8-8-8b-8b-8b-8b--------~-----------------------------9-9-9-9-9-9-9-9-9-9-|
D[----------------------------------------------------------------------------|
A[----------------------------------------------------------------------------|
E[----------------------------------------------------------------------------|

Guitar 2 Intro cont.
e[-----------------------------------------|
B[-----------------------------------------|
G[-----------------------------------------|
D[--2---------4---------7---------2--------| 
A[--2-(16x)---4-(16x)---7-(16x)---2-(16x)--|
E[--0---------2---------5---------0--------|

Guitar 1 Verse 1
e[--------|      ------------------------------------|
B[--------|      ------------------------------------|
G[--9-9---| 21x  ---9----------9----------------9----|
D[--x-x---|      -------9----------9------9-9--------|
A[--7-7---|      ------------------------------------|
E[--------|      ------------------------------------|

Guitar 2 Verse 1
e[-----------------------|     ----------------------------------|
B[-----------------------|     ----------------------------------|
G[-----------------------|     ----------------------------------|
D[-----7-7------2-2------| 3x  ---4-----4--6-----6--7-----7------|
A[-----7-5------2-2------|     ---4-----4--6-----6--7-----7------|
E[-----5-5------0-0------|     ---2-----2--4-----4--5-----5------|
       . .      . .

Guitar (Both) Chorus
e[-----------------------------------------|
B[-----------------------------------------|
G[-----------------------------------------|
D[--2---------4---------7---------2--------| 2X
A[--2-(16x)---4-(16x)---7-(16x)---2-(16x)--|
E[--0---------2---------5---------0--------|

Guitar 1 Verse 2
e[---------------------------------------------------------------------|
B[---------------------------------------------------------------------|
G[--9-9-14-14-9-9----9-9-14-14-9-9----9-9-13-13-9-9----9-9-13-13-9-9---|
D[--x-x-x--x--x-x----x-x-x--x--x-x----x-x-x--x--x-x----x-x-x--x--x-x---| 2x
A[--7-7-12-12-7-7----7-7-12-12-7-7----7-7-11-11-7-7----7-7-11-11-7-7---|
E[---------------------------------------------------------------------|

e[-----------------------------------------------------------------------------------|
B[-----------------------------------------------------------------------------------|
G[--9-9-14-14-9-9----9-9-14-14-9-9----9-9-13-13-9-9---9---------9----------------9---|
D[--x-x-x--x--x-x----x-x-x--x--x-x----x-x-x--x--x-x-------9---------9------9-9-------|
A[--7-7-12-12-7-7----7-7-12-12-7-7----7-7-11-11-7-7----------------------------------|
E[-----------------------------------------------------------------------------------|

Guitar 2 Verse 2
e[----------------------------------|     ----------------------------------|
B[----------------------------------|     ----------------------------------|
G[----------------------------------|     ----------------------------------|
D[-----7-7---7-7---2-2---2-2--------| 3x  ---4-----4--6-----6--7-----7------|
A[-----7-7---7-7---2-2---2-2--------|     ---4-----4--6-----6--7-----7------|
E[-----5-5---5-5---0-0---0-0--------|     ---2-----2--4-----4--5-----5------|

Guitar (Both) Chorus
e[-----------------------------------------|
B[-----------------------------------------|
G[-----------------------------------------|
D[--2---------4---------7---------2--------| 2X
A[--2-(16x)---4-(16x)---7-(16x)---2-(16x)--|
E[--0---------2---------5---------0--------|

Guitar 1 Bridge
e[-----------------------------------|
B[-----------------------------------|
G[---8b-8b-8b-8b-8b-8b-8b-8b-8b-8b---|
D[-----------------------------------|
A[-----------------------------------|
E[-----------------------------------|

e[-------------------/7-7-12-12-12-11-11-11-7\----|      -------------------------------|
B[---5-5-5-5--5--5--------------------------------|      --9b--r9-----------------------|
G[---8-8-8-8b-8b-8b-------------------------------|      ----------9-9-9-9-9-9-9-9-9-9--|
D[------------------------------------------------| 3x   -------------------------------|
A[------------------------------------------------|      -------------------------------|
E[------------------------------------------------|      -------------------------------|

Guitar 2 Bridge
e[-----------------------------------------|
B[-----------------------------------------|
G[-----------------------------------------|
D[--2---------4---------7---------2--------|
A[--2-(16x)---4-(16x)---7-(16x)---2-(16x)--|
E[--0---------2---------5---------0--------|

Guitar 1 Bridge cont.
e[---------------------------------------------------------------------------------|
B[-----------------------------------------------------------5-5-5-5--5--5--5--5---|
G[-----------------------------------------------------------8-8-8-8b-8b-8b-8b-8b--|
D[--/6--4-----/-6--4-----4--2-----4--2-----/6--4-----6--4--------------------------|
A[--/6--4-----/-6--4-----4--2-----4--2-----/6--4-----6--4--------------------------|
E[--/4--2-----/-4--2-----2--0-----2--0-----/4--2-----4--2--------------------------|

Guitar 2 Bridge cont.
e[------------------------------------------------------------------------------|
B[------------------------------------------------------------------------------|
G[------------------------------------------------------------------------------|
D[--/6--4-----/-6--4-----4--2-----4--2-----/6--4-----6--4----2-2-2-2-2-2-2-2----|
A[--/6--4-----/-6--4-----4--2-----4--2-----/6--4-----6--4----2-2-2-2-2-2-2-2----|
E[--/4--2-----/-4--2-----2--0-----2--0-----/4--2-----4--2----0-0-0-0-0-0-0-0----|
                                                             . . . . . . . .
Guitar 1 Bridge cont. (clean)
e[---------------------------------------------------------------------------------------|
B[---------------------------------------------------------------------------------------|
G[------9---------9-----------9----------9-----------9-----------9---------9--------9----|
D[--------9---------9-----------9----------9-----------9-----------9----7----9---7----9--|
A[---7----------7-----------9----------9----------11----------11-------------------------|
E[---------------------------------------------------------------------------------------|

(distorted)
e[--------|
B[--------|
G[--------|
D[--7--7--|
A[--7--7--|
E[--5--5--|

Guitar 2 Bridge cont.
e[-------------------------------------------------------------------------|
B[-------------------------------------------------------------------------|
G[-------------------------------------------------------------------------|
D[-----------------------------------------------------------------7--7----|
A[------------------------------------------------4-(16x)----------7--7----|
E[--------------------------------------------------------5-(6x)---5--5----|
                                                  .       .
Guitar (Both) Chorus
e[-----------------------------------------|
B[-----------------------------------------|
G[-----------------------------------------|
D[--2---------4---------7---------2--------| 2x (for Guitar 2)
A[--2-(16x)---4-(16x)---7-(16x)---2-(16x)--|
E[--0---------2---------5---------0--------|

Guitar 1 Chorus cont.
e[------------19~-------------19b21r19------------19~----17--16--------|
B[---16--17----------16--17---------------16--17-----------------17~---|
G[---------------------------------------------------------------------|
D[---------------------------------------------------------------------|
A[---------------------------------------------------------------------|
E[---------------------------------------------------------------------|

Guitar (Both) Ending
e[----------------------|
B[----------------------|
G[----------------------|
D[--7--------2----------|
A[--7-(16x)--2-(9x)-----|
E[--5--------0----------|
comments
We did not receive enough feedback on this tab! Please rate:
print report bad tab
1 2 3 4 5
1 comment total.
0 reply
alexacrump201 wrote on November 11 2014, 01:22 am

Clearly wrong. This is clearly not for ukulele, which is what it is filed under. Don't understand how someone could possibly get that wrong.

I want to post or [tab]
guest
You may want to rate the tab now too:
select rating
Please do not post tabs as comments. Select "correction" instead!