Oops, an error
Loading. Please wait.

Bite Back Tab

version 2
version 2

Whole song

1,273 views 1 this week
no commentswrite comment
1 2 3 4 5
please rate
add to favorites
launch autoscroll
font size
0
reset
how to read this tab
guitar tuner
Tab Pro tools
  • play this tab
  • loop segment
  • change instrument
  • show fretboard
  • metronome
×
Best way to learn
"Bite Back"
Autoscroll
slow
fast
+/-
esc
set tempo
stop
Contributor
----------------------------------------------------------------------------
                        BITE BACK - All-American Rejects
----------------------------------------------------------------------------

Tuning:Standard (EADGBe)

Intro - Guitar 1 - Palm Muted (repeat)
    . . . . . . . . . . . . . . . . . . . . . . . . . . . . . . . .
e|-------------------------------------------------------------------------|
B|-------------------------------------------------------------------------|
G|-------------------------------------------------------------------------|
D|--6-6-6-6-6-6-6-6-9-9-9-9-9-9-9-9-4-4-4-4-4-4-4-4-4-4-4-4-4-4-4-4--------|
A|--4-4-4-4-4-4-4-4-7-7-7-7-7-7-7-7-2-2-2-2-2-2-2-2-2-2-2-2-2-2-2-2--------|
E|-------------------------------------------------------------------------|

Guitar 2 - "Oh No"

e|------------------------|
B|------------------------|
G|-----------9-9----------|
D|-----------9-9----------|
A|-----------7-7----------|
E|------------------------|

Guitars 1 and 2 - "Then set yourself to disappoint"

e|---------------------------------------------------------|
B|------------------------------------------7--------------|
G|------------------------------------------7--------------|
D|------------------------------------------5--------------|
A|---------------------------------------------------------|
E|---------------------------------------------------------|

Verse -  Guitar 2  (Guitar 1 repeats intro)

e|--------------------|
B|--------------------|
G|----9-9-8-9---------| (repeated)
D|--------------------|
A|--------------------|
E|--------------------|

Pre Chorus

e|----0--------------0-----------------------0-----------------------------|
B|----0--------------0---------------------0--------------3-2--3-2--3-2--3-|
G|----2--------------2-------------------2------------(2)------------------|
D|----2--------------2-----------------2-----------------------------------|
A|-------------------------------------------------------------------------|
E|-------------------------------------------------------------------------|

Chorus

e|-----------------------------------------------------------------------|
B|-----------------------------------------------------------------------|
G|----6-6-6-6-6-6-6-6-9-9-9-9-9-9-9-9-4-4-4-4-4-4-4-4-7-7-7-7-7-7-7-7----|
D|----6-6-6-6-6-6-6-6-9-9-9-9-9-9-9-9-4-4-4-4-4-4-4-4-7-7-7-7-7-7-7-7----|
A|----4-4-4-4-4-4-4-4-7-7-7-7-7-7-7-7-2-2-2-2-2-2-2-2-5-5-5-5-5-5-5-5----|
E|-----------------------------------------------------------------------|

2nd Verse begins with the intro being played without palm mutes then the second half of
verse is played like this:

e|----0----------0-----------0-------------0--------------|
B|------0----------0-----------0---------0----------------|
G|--------------------------------------------------------|  (x2)
D|--------------------------------------------------------|
A|--------------------------------------------------------|
E|--------------------------------------------------------|

Chorus x 2

Bridge x 2:

e|----------------------------------------------------------------------------|
B|----------------------------------------------------------------------------|
G|-4-4-4-4-4-4-4-4-4-4-4-4-4-4-4-4-7-7-7-7-7-7-7-7-7-7-7-7-7-7-7-7-7--7\-4-4--|
D|---------------------------------7-7-7-7-7-7-7-7-7-7-7-7-7-7-7-7-7--7\-4-4--|
A|---------------------------------5-5-5-5-5-5-5-5-5-5-5-5-5-5-5-5-5--5\-2-2--|
E|----------------------------------------------------------------------------|

e]-------------------------------------------------------------------------|
B]-------------------------------------------------------------------------|
G]--7-7-7-7-7-7-7-7-7-7-7-7-7-7-7-7-9-9-9-9-9-9-9-9-9-9-9-9-9-9------------|
D]--7-7-7-7-7-7-7-7-7-7-7-7-7-7-7-7-9-9-9-9-9-9-9-9-9-9-9-9-9-9------------|
A]--5-5-5-5-5-5-5-5-5-5-5-5-5-5-5-5-7-7-7-7-7-7-7-7-7-7-7-7-7-7------------|
E]-------------------------------------------------------------------------|

Guitar Solo
                 . . . . . . .
e]--------------------------------------------------------------------------------------|
B]--------------------------------------------------9h10h12-10h12h14-12h13h14-----------|
G]--11b13r11--9-------9-11-13-9----9h11h13-11h13h14-------------------------------------|
D]---------------9-11-------------------------------------------------------------------|
A]--------------------------------------------------------------------------------------|
E]--------------------------------------------------------------------------------------|
(pick at the highest point of the bend and then release, you'll understand if you listen 
the song)

e]----------18p17----17-19p17----17--------20b22-20b22-20-17-18-17-15-17-15-13--15b17---|
B]--17-19---------18----------18-----(x3)-----------------------------------------------|
G]--------------------------------------------------------------------------------------|
D]--------------------------------------------------------------------------------------|
A]--------------------------------------------------------------------------------------|
E]--------------------------------------------------------------------------------------|
If you are confused with the x3 then listen to the track and you will understand, the pull
off section is the only part to be repeated 3 times

e]--20--15b17r15-13-------|
B]------------------------|
G]------------------------|
D]------------------------|
A]------------------------|
E]------------------------|

Final Pre Chorus (normal pre chorus is played beneath the lead guitar)
Let ring

e]---20------20b22r20------17b19r17------15--13-|
B]----------------------------------------------|
G]----------------------------------------------|
D]----------------------------------------------|
A]----------------------------------------------|
E]----------------------------------------------|

Chorus repeated with this repeated lead overlay after the chorus has been played through 
already.

e]------13-13-12-13------------|
B]-----------------------------|
G]-----------------------------|
D]-----------------------------|
A]-----------------------------|
E]-----------------------------|

Finish with

e]-------x-x-----x-x-----------------------------------------|
B]-------x-x-----x-x-----------------------------------------|
G]----2--x-x--9--x-x-4------------------------2\-------------|
D]----2--x-x--9--x-x-4------------------------2\-------------|
A]----0--x-x--7--x-x-2------------------------0\-------------|
E]-------x-x-----x-x-----------------------------------------|

| /  slide up
| \  slide down
| h  hammer-on
| p  pull-off
| ~  vibrato
| +  harmonic
| x  Mute note
============================================================================
comments
We did not receive enough feedback on this tab! Please rate:
print report bad tab
1 2 3 4 5
I want to post or [tab]
guest
You may want to rate the tab now too:
select rating
Please do not post tabs as comments. Select "correction" instead!