Oops, an error
Loading. Please wait.

Breakin Tab

2,989 views 1 this week
no commentswrite comment
1 2 3 4 5
please rate
add to favorites
launch autoscroll
font size
0
reset
how to read this tab
guitar tuner
Tab Pro tools
  • play this tab
  • loop segment
  • change instrument
  • show fretboard
  • metronome
×
Best way to learn
"Breakin"
Autoscroll
slow
fast
+/-
esc
set tempo
stop
Contributor
Difficulty
novice
-------------------------------------------------------------------------------
                        Breakin' - All-American Rejects
-------------------------------------------------------------------------------
Tabbed by: Rob Cass
Email: robertjcass@hotmail.co.uk

Tuning: Standard (EADGBe)

NOTE: The power chords could be changed to normal chords if you want. This tab is 
based around a heavy cover.

Intro -- Not sure about this bit :S Don't rate lower if it's wrong please <3

e|----------------------------------------------------------|
B|----------------------------------------------------------|
G|----8--8-8-8--8--8-8--8--8-8--6--6-6-6--6--6-6--6--6-6----|
D|----8--8-8-8--8--8-8--8--8-8--6--6-6-6--6--6-6--6--6-6----|
A|----6--6-6-6--6--6-6--6--6-6--4--4-4-4--4--4-4--4--4-4----|
E|----------------------------------------------------------|

e|----------------------------------------------------------|
B|----------------------------------------------------------|
G|----8--8-8-8--8--8-8--8--8-8--8--8-8-8--8--8-8--8--8-8----|
D|----8--8-8-8--8--8-8--8--8-8--8--8-8-8--8--8-8--8--8-8----|
A|----6--6-6-6--6--6-6--6--6-6--6--6-6-6--6--6-6--6--6-6----|
E|----------------------------------------------------------|

e|----------------------------------------------------------|
B|----------------------------------------------------------|
G|----8--8-8-8--8--8-8--8--8-8--6--6-6-6--6--6-6--6--6-6----|
D|----8--8-8-8--8--8-8--8--8-8--6--6-6-6--6--6-6--6--6-6----|
A|----6--6-6-6--6--6-6--6--6-6--4--4-4-4--4--4-4--4--4-4----|
E|----------------------------------------------------------|

e|----------------------------------------------------------|
B|----------------------------------------------------------|
G|----4--4-4-4--4--4-4--4--4-4--4--4-4-4--4--4-4--4--4-4----|
D|----4--4-4-4--4--4-4--4--4-4--4--4-4-4--4--4-4--4--4-4----|
A|----2--2-2-2--2--2-2--2--2-2--2--2-2-2--2--2-2--2--2-2----|
E|----------------------------------------------------------|

Verse
                                                              \
e|----------------------------------------------------------| |
B|----------------------------------------------------------| |
G|----4--4-4-4--4--4-4--4--4-4--6--6-6-6--6--6-6--6--6-6----| |
D|----4--4-4-4--4--4-4--4--4-4--6--6-6-6--6--6-6--6--6-6----| |
A|----2--2-2-2--2--2-2--2--2-2--4--4-4-4--4--4-4--4--4-4----| |
E|----------------------------------------------------------| |
                                                              |
e|----------------------------------------------------------| |
B|----------------------------------------------------------| |
G|----------------------------------------------------------| |
D|---2--2-2-2--2--2-2--2--2-2--2--2-2-2--2--2-2--2--2-2-----|-|
A|---2--2-2-2--2--2-2--2--2-2--2--2-2-2--2--2-2--2--2-2-----| |
E|---0--0-0-0--0--0-0--0--0-0--0--0-0-0--0--0-0--0--0-0-----| |
                                                              |---------X2
e|----------------------------------------------------------| |
B|----------------------------------------------------------| |
G|----------------------------------------------------------| |
D|---6--6-6-6--6--6-6--6--6-6--4--4-4-4--4--4-4--4--4-4-----|-|
A|---6--6-6-6--6--6-6--6--6-6--4--4-4-4--4--4-4--4--4-4-----| |
E|---4--4-4-4--4--4-4--4--4-4--2--2-2-2--2--2-2--2--2-2-----| |
                                                              |
e|----------------------------------------------------------| |
B|----------------------------------------------------------| |
G|----------------------------------------------------------| |
D|---2--2-2-2--2--2-2--2--2-2--2--2-2-2--2--2-2--2--2-2-----| |
A|---2--2-2-2--2--2-2--2--2-2--2--2-2-2--2--2-2--2--2-2-----| |
E|---0--0-0-0--0--0-0--0--0-0--0--0-0-0--0--0-0--0--0-0-----| |
                                                              /

Pre-Chorus

e|--------------------|
B|--------------------|
G|--------------------|
D|-----6-6-----4-4----|
A|-----6-6-----4-4----|
E|-----4-4-----2-2----|

Chorus
                                                                          \
e|----------------------------------------------------------------------| |
B|----------------------------------------------------------------------| |
G|----------------------------------------------------------------------| |
D|--9-9-9-9-9-9-9-9--8-8-8-8-8-8-8-8--6-6-6-6-6-6-6-6--2-2-2-2-2-2-2-2--| | X2
A|--9-9-9-9-9-9-9-9--8-8-8-8-8-8-8-8--6-6-6-6-6-6-6-6--2-2-2-2-2-2-2-2--| |
E|--7-7-7-7-7-7-7-7--6-6-6-6-6-6-6-6--4-4-4-4-4-4-4-4--0-0-0-0-0-0-0-0--| |
                                                                          /
Verse 2
                                                              \
e|----------------------------------------------------------| |
B|----------------------------------------------------------| |
G|----4--4-4-4--4--4-4--4--4-4--6--6-6-6--6--6-6--6--6-6----| |
D|----4--4-4-4--4--4-4--4--4-4--6--6-6-6--6--6-6--6--6-6----| |
A|----2--2-2-2--2--2-2--2--2-2--4--4-4-4--4--4-4--4--4-4----| |
E|----------------------------------------------------------| |
On the first repeat dont play these ^^^^^^^^^^^^^^^^^^^^^^^^  |
                                                              |
                                                              |
e|----------------------------------------------------------| |
B|----------------------------------------------------------| |
G|----------------------------------------------------------| |
D|---2--2-2-2--2--2-2--2--2-2--2--2-2-2--2--2-2--2--2-2-----|-|
A|---2--2-2-2--2--2-2--2--2-2--2--2-2-2--2--2-2--2--2-2-----| |
E|---0--0-0-0--0--0-0--0--0-0--0--0-0-0--0--0-0--0--0-0-----| |
                                                              |---------X2
e|----------------------------------------------------------| |
B|----------------------------------------------------------| |
G|----------------------------------------------------------| |
D|---6--6-6-6--6--6-6--6--6-6--4--4-4-4--4--4-4--4--4-4-----|-|
A|---6--6-6-6--6--6-6--6--6-6--4--4-4-4--4--4-4--4--4-4-----| |
E|---4--4-4-4--4--4-4--4--4-4--2--2-2-2--2--2-2--2--2-2-----| |
                                                              |
e|----------------------------------------------------------| |
B|----------------------------------------------------------| |
G|----------------------------------------------------------| |
D|---2--2-2-2--2--2-2--2--2-2--2--2-2-2--2--2-2--2--2-2-----| |
A|---2--2-2-2--2--2-2--2--2-2--2--2-2-2--2--2-2--2--2-2-----| |
E|---0--0-0-0--0--0-0--0--0-0--0--0-0-0--0--0-0--0--0-0-----| |
                                                              /
Pre-Chorus

e|-----------------------|
B|-----------------------|
G|-----------------------|
D|-----6-6-----4-4----2~-|
A|-----6-6-----4-4----2~-|
E|-----4-4-----2-2----0~-|

Chorus
                                                                          \
e|----------------------------------------------------------------------| |
B|----------------------------------------------------------------------| |
G|----------------------------------------------------------------------| |
D|--9-9-9-9-9-9-9-9--8-8-8-8-8-8-8-8--6-6-6-6-6-6-6-6--2-2-2-2-2-2-2-2--| | X2
A|--9-9-9-9-9-9-9-9--8-8-8-8-8-8-8-8--6-6-6-6-6-6-6-6--2-2-2-2-2-2-2-2--| |
E|--7-7-7-7-7-7-7-7--6-6-6-6-6-6-6-6--4-4-4-4-4-4-4-4--0-0-0-0-0-0-0-0--| |
                                                                          /
Interlude (Get the timing right)
                                     \
e|---------------------------------| |
B|---------------------------------| |
G|---------------------------------| | X2
D|-----9-9-----4-4----6-6---4---2-2| |
A|-----9-9-----4-4----6-6---4---2-2| |
E|-----7-7-----2-2----4-4---2---0-0| |
                                     /
Bridge
e|--------------------------------------|
B|--------------------------------------|
G|--------------------------------------|
D|---8-8---8-8---8-8---8-8---8-8---8----|
A|---8-8---8-8---8-8---8-8---8-8---8----|
E|---6-6---6-6---6-6---6-6---6-6---6----|

e|------------------------------------|
B|------------------------------------|
G|------------------------------------|
D|---9---9-9---9-9---9-9---9-9---9----|
A|---9---9-9---9-9---9-9---9-9---9----|
E|---7---7-7---7-7---7-7---7-7---7----|

e|------------------------------------|
B|------------------------------------|
G|------------------------------------|
D|---8---8-8---8-8---8-8---8-8---8-8--|
A|---8---8-8---8-8---8-8---8-8---8-8--|
E|---6---6-6---6-6---6-6---6-6---6-6--|

e|--------------------------------------|
B|--------------------------------------|
G|--------------------------------------|
D|---9-9---9-9---9-9~~~~~~~~~~~~~~~~~~~~|
A|---9-9---9-9---9-9~~~~~~~~~~~~~~~~~~~~|
E|---7-7---7-7---7-7~~~~~~~~~~~~~~~~~~~~|

e|---------------------------|
B|---------------------------|
G|---------------------------|
D|---7-7-7-7-7-7-7-7-7-7-7-7-|
A|---7-7-7-7-7-7-7-7-7-7-7-7-|
E|---5-5-5-5-5-5-5-5-5-5-5-5-|


"You're wasting my time..."

Chorus
                                                                          \
e|----------------------------------------------------------------------| |
B|----------------------------------------------------------------------| |
G|----------------------------------------------------------------------| |
D|--9-9-9-9-9-9-9-9--8-8-8-8-8-8-8-8--6-6-6-6-6-6-6-6--2-2-2-2-2-2-2-2--| | X2
A|--9-9-9-9-9-9-9-9--8-8-8-8-8-8-8-8--6-6-6-6-6-6-6-6--2-2-2-2-2-2-2-2--| |
E|--7-7-7-7-7-7-7-7--6-6-6-6-6-6-6-6--4-4-4-4-4-4-4-4--0-0-0-0-0-0-0-0--| |
                                                                          /
Interlude (Get the timing right)
                                     \
e|---------------------------------| |
B|---------------------------------| |
G|---------------------------------| | X2
D|-----9-9-----4-4----6-6---4---2-2| |
A|-----9-9-----4-4----6-6---4---2-2| |
E|-----7-7-----2-2----4-4---2---0-0| |
                                     /
Outro
e|-----------------|
B|-----------------|
G|-----------------|
D|---8-8--8-8--8-8-|
A|---8-8--8-8--8-8-|
E|---6-6--6-6--6-6-|

************************************

| /   slide up
| \   slide down
| h   hammer-on
| p   pull-off
| ~   vibrato
| +   harmonic
| x   Mute note
| b   Bend
| pb  Pre-bend
| br  Bend release
| pbr Pre-bend release
| brb Bend release bend

************************************
comments
We did not receive enough feedback on this tab! Please rate:
print report bad tab
1 2 3 4 5
I want to post or [tab]
guest
You may want to rate the tab now too:
select rating
Please do not post tabs as comments. Select "correction" instead!