Oops, an error
Loading. Please wait.

Change Your Mind Bass Tab

version 1
version 1

Whole song

1,272 views 1 this week
1 commentread comment
1 2 3 4 5
accurate
x 1
add to favorites
launch autoscroll
font size
0
reset
guitar tuner
Tab Pro tools
  • play this tab
  • loop segment
  • change instrument
  • show fretboard
  • metronome
Autoscroll
slow
fast
+/-
esc
set tempo
stop
Difficulty
novice
CHANGE YOUR MIND
THE ALL-AMERICAN REJECTS / MOVE ALONG

TABBED BY:  ERIC LESKO
	    MIKE MCDANIEL

Play As Tabbed

Key:
    ~~~   =   play as whole note

|-----------------------------|--------------------------------|
|-----------------3------3----|--------------------------------|
|--3------3-------------------|--------------------------------| x3
|-----------------------------|--5------5------3------3--------|

|-----------------------------|--------------------------------|
|-----------------------------|--------------------------------|
|-----------------5------5----|--3------3------3------3--------|
|--6------6-------------------|--------------------------------|

|-----------------------------|--------------------------------|
|-----------------------------|--------------------------------|
|-----------------5------5----|--33333333333333333-------------|
|--6------6-------------------|--------------------------------|

|--------------------------------------------------------------|
|--------------------------------------------------------------|
|--8888888888888888--------------------8888888888888888--------|
|--------------------6666666666666666--------------------------|

|--------------------------------------------------------------|
|--------------------------------------------------------------|
|--------------------5555555555555555--3333333333333333--------|
|--6666666666666666--------------------------------------------|

|--------------------------------------------------------------------------|
|--------------------------------------------------------------------------|
|--1111111111111111--11-1--|
|--------------------------------------------------------------------------|

|--------------------------------------------------------------|
|------------33333333------------------------------------------|
|--33333333----------------------------------------------------| x2
|----------------------55555555--33333333----------------------|

|--------------------------------------------------------------|
|--------------------------------------------------------------|
|--------5555--3333--3333--------------------------------------| x2
|--6666--------------------------------------------------------|

|--------------------------------------------------------------|
|--------------------------------------------------------------|
|--8888888888888888--------------------8888888888888888--------|
|--------------------6666666666666666--------------------------|

|--------------------------------------------------------------|
|--------------------------------------------------------------|
|--------------------5555555555555555--3333333333333333--------|
|--6666666666666666--------------------------------------------|

|--------------------------------------------------------------------------|
|--------------------------------------------------------------------------|
|--1111111111111111--11-1--|
|--------------------------------------------------------------------------|

|--------------------------------------------------------------|
|--------------------------------------------------------------|
|--------------------------------------------------------------| x2
|--55555555--66666666--88888888—88888888-----------------------|

|--------------------------------------------------------------|
|--------------------------------------------------------------|
|--8-8-8-8-—5-5-5-5--------------------------------------------|
|--------------------8-8-8-8--6-6-6-6--------------------------|

|--------------------------------------------------------------|
|--------------------------------------------------------------|
|--8-8-8-8—-5-5-5-5—-------------------------------------------|
|--------------------8-8-8-8—-6-6-6-6--------------------------|

|--------------------------------------------------------------|
|--------------------------------------------------------------|
|--------------------------------------------------------------|
|--5-5-5-5—-5-5-5-5—-3-3-3-3—-3-3-3-3--------------------------|

|--------------------------------------------------------------|
|--------------------------------------------------------------|
|------------------1-1-1-1-1-1-1-1-----------------------------| x2
|--1-1-1-1-1-1-1-1---------------------------------------------|

|--------------------------------------------------------------|
|--------------------------------------------------------------|
|--8888888888888888--------------------8888888888888888--------|
|--------------------6666666666666666--------------------------|

|--------------------------------------------------------------|
|--------------------------------------------------------------|
|--------------------5555555555555555--3333333333333333--------|
|--6666666666666666--------------------------------------------|

|--------------------------------------------------------------------------|
|--------------------------------------------------------------------------|
|--1111111111111111--11-1--|
|--------------------------------------------------------------------------|

|--------------------------------------------------------------|
|--------------------------------------------------------------|
|--8-8-8-8--5-5-5-5--3-3-3-3--1-1-1-1—-------------------------| x3
|--------------------------------------------------------------|

|------------------------------------------------------------------------------------|
|------------------------------------------------------------------------------------|
|--88888888--55555555--33-1-3-3------------------------------|
|------------------------------------------------------------------------------------|

Ó 2007 Mike McDaniel
comments
We did not receive enough feedback on this tab! Please rate:
print report bad tab
1 2 3 4 5
1 comment total.
0 reply
chckndmplngs wrote on May 20 2007, 06:17 pm

Good tab, but what are these "1"?

I want to post or [tab]
guest
You may want to rate the tab now too:
select rating
Please do not post tabs as comments. Select "correction" instead!