Oops, an error
Loading. Please wait.

Change Your Mind Bass Tab

version 2
version 2

Whole song

2,217 views 1 this week
2 commentsread comments
1 2 3 4 5
accurate
x 5
add to favorites
launch autoscroll
font size
0
reset
guitar tuner
Tab Pro tools
  • play this tab
  • loop segment
  • change instrument
  • show fretboard
  • metronome
×
Best way to learn
"Change Your Mind"
Autoscroll
slow
fast
+/-
esc
set tempo
stop
Contributor
Intro
G-----------------------------------------------|
D-----------------------------------------------|
A-1~--\5~--3~-----5-3-1~--\5~--3333333333333333-|
E-----------------------------------------------|

Chorus
G-----------------------------------|
D-----------------------------------|
A------------------1111111111111111-|
E-1111111111111111------------------|

G-----------------------------------|
D-----------------------------------|
A--------------33331111111111111111-|
E-111111111111----------------------|

G-------------------------------------------|
D----------------------232----232-----------|
A-5555555555555555-3333---3333---3-1~-------|
E-------------------------------------------|

G------------|
D------------|
A-1~--1~--1~-|
E------------|

Verse 1
G--------------------------------------------------------------------------|
D--------------------------------------------------------------------------|
A-3-3-3-3-----------0-0-0-0--------3-5--3-3-3-3-----------0-0-0-0----------|
E--------1-11111111--------3-33333-------------1-11111111--------3-3333333-|

Pre Chorus 2
G-------------------------------------------------------|
D-------------------------------------------------------|
A-1~--\5~-3~-----5-3-1~--\5~-3333-5555-7777-10-10-10-10-|
E-------------------------------------------------------|

Chorus x1

Bridge
G-------------------------------------|
D-------------------------------------|
A-0000-00-1-111-11-3-333-33-5-55-7-77-|
E-------------------------------------|

G----------------------------------|
D----------------------------------|
A-0000-00-1-111-11-3-333-33-5-55-7-|
E----------------------------------|

G---------------------------------------------------------------------|
D---------------------------------------------------------------------|
A---------5555555-33333333-11111111-0000000000000000-1111111111111111-|
E-1111111-------------------------------------------------------------|

G----------------------------------|
D----------------------------------|
A-----------------1111111111111111-|
E-1111111111111111-----------------|

G----------------------------------|
D----------------------------------|
A-------------33331111111111111111-|
E-111111111111---------------------|

Chorus x1

Ending
G---------------|
D---------------|
A-5-3-1~---1-3~-|
E---------------|
comments
print report bad tab
2 comments total.
0 reply
caborisade24 wrote on February 14 2014, 12:46 pm

This is an excellent tab, everything is 100 % accurate to the song, one thing that i would add in there is an open A note before the "3-5--3-3-3-3" in the Verse. So it should be like "0-3-5--3-3-3-3" on the A string. If you're still confused check this out..

G--------------------------------------------------------------------------|
D--------------------------------------------------------------------------|
A-3-3-3-3-----------0-0-0-0--------0-3-5--3-3-3-3-----------0-0-0-0----------|
E--------1-11111111--------3-33333-------------1-11111111--------3-3333333-|

0 reply
caborisade24 wrote on February 14 2014, 12:48 pm

Everything is accurate, thanks for tabbing it

I want to post or [tab]
guest
You may want to rate the tab now too:
select rating
Please do not post tabs as comments. Select "correction" instead!