Oops, an error
Loading. Please wait.

Change Your Mind Tab

version 2
version 2

Whole song

3,145 views 1 this week
no commentswrite comment
1 2 3 4 5
accurate
x 3
add to favorites
launch autoscroll
font size
0
reset
how to read this tab
guitar tuner
Tab Pro tools
  • play this tab
  • loop segment
  • change instrument
  • show fretboard
  • metronome
×
Best way to learn
"Change Your Mind"
Autoscroll
slow
fast
+/-
esc
set tempo
stop
Contributor
CHANGE YOUR MIND
THE ALL-AMERICAN REJECTS
(move along)


E | ---x---x---x---x----|
B | ---x---x---x---x----|
G | ---5---x---x---x----|
D | ---5---3---7---5----|
A | ---3---3---7---5----|
E | ---x---1---5---3----|
Don't solve the problem,
When danger is bitter.
Fall where we stuck them,
In cages of tither.


E | ---x----x-----x-------|
B | ---x----x-----x-------|
G | ---3----7-----5-------|
D | ---3----7-----5-------|
A | ---1----5-----3-------|
E | ---x----x-----x-------|
And all the bridges you've burned,
Leave you trapped off at all sides.
And now the tables do turn,
And it's all gone, what's left for you.


-chorus-
E | ---x-----x------x-----x----------x-------x--------------x---|
B | ---x-----x------x-----x----------x-------x--------------x---|
G | ---x-----x------x-----x----------7-------5--------------3---|
D | ---3-----8------3-----8----------7-------5--------------3---|
A | ---3-----8------3-----8----------5-------3--------------1---|
E | ---1-----6------1-----6----------x-------x--------------x---|
And when the sky is falling,
Don't look outside the window.
Step back and hear i'm calling.
Give up, don't take the busload.
It's just your debt that binds you.
Just drop the stocks behind you, now.
Change your mind.
Let go too soon.


E | ---x---x---x---x----|
B | ---x---x---x---x----|
G | ---5---x---x---x----|
D | ---5---3---7---5----|
A | ---3---3---7---5----|
E | ---x---1---5---3----|
Sit down, you're sinking,
There's no one to watch you.
Skip town, you're thinking,
There's no one to stop you.

E | ---x----x-----x-------|
B | ---x----x-----x-------|
G | ---3----7-----5-------|
D | ---3----7-----5-------|
A | ---1----5-----3-------|
E | ---x----x-----x-------|
And all the bridges you've burned,
Leave you trapped off at all sides.
And now the tables do turn,
And it's all gone, what's left for you.


-chorus-
E | ---x-----x------x-----x----------x-------x--------------x---|
B | ---x-----x------x-----x----------x-------x--------------x---|
G | ---x-----x------x-----x----------7-------5--------------3---|
D | ---3-----8------3-----8----------7-------5--------------3---|
A | ---3-----8------3-----8----------5-------3--------------1---|
E | ---1-----6------1-----6----------x-------x--------------x---|
And when the sky is falling,
Don't look outside the window.
Step back and hear i'm calling.
Give up, don't take the busload.
It's just your debt that binds you.
Just drop the stocks behind you, now.
Change your mind.
Let go too soon.


-solo-
E | ---x----x----x---------|
B | ---x----x----x---------|
G | ---x----x----x---------|   [2x]
D | ---7----8---10---------|
A | ---7----8---10---------|
E | ---5----6----8---------|


E | ---x----x----x----x-----|
B | ---x----x----x----x-----|
G | ---x----7----5----3-----|
D | ---3----7----5----3-----|
A | ---3----5----3----1-----|
E | ---1----x----x----x-----|
Don't run away,
Stop feeling fine.
It's better than your worst, worst day.
No words to say, i'll give you mine,
And pocket all the hurt, just stay.


E | ----x-----x---------------------|
B | ----x-----x---------------------|
G | ----x-----x---------------------|
D | ----7-----5---------------------|
A | ----7-----5---------------------|
E | ----5-----3---------------------|
Don't run away.
It's better than your worst, worst day.


E | ---x-----x------x-----x--------|
B | ---x-----x------x-----x--------|
G | ---x-----x------x-----x--------|
D | ---3-----8------3-----8--------|
A | ---3-----8------3-----8--------|
E | ---1-----6------1-----6--------|
And when the sky is falling,
Don't look outside the window.
Step back and hear i'm calling.
Give up, don't take the busload.

-chorus-
E | ---x-----x------x-----x----------x-------x--------------x---|
B | ---x-----x------x-----x----------x-------x--------------x---|
G | ---x-----x------x-----x----------7-------5--------------3---|
D | ---3-----8------3-----8----------7-------5--------------3---|
A | ---3-----8------3-----8----------5-------3--------------1---|
E | ---1-----6------1-----6----------x-------x--------------x---|
And when the sky is falling,
Don't look outside the window.
Step back and hear i'm calling.
Give up, don't take the busload.
It's just your debt that binds you.
Just drop the stocks behind you, now.
Change your mind.
Let go too soon.


E | ---x----x----x----x-----|
B | ---x----x----x----x-----|
G | ---x----7----5----3-----|
D | ---3----7----5----3-----|
A | ---3----5----3----1-----|
E | ---1----x----x----x-----|
Don't run away.
Change your mind.
Let go too soon.
[x4]
comments
We did not receive enough feedback on this tab! Please rate:
print report bad tab
1 2 3 4 5
I want to post or [tab]
guest
You may want to rate the tab now too:
select rating
Please do not post tabs as comments. Select "correction" instead!