Oops, an error
Loading. Please wait.

Damn Girl Tab

version 1
version 1

Whole song

17,256 views 9 this week
1 commentread comment
1 2 3 4 5
accurate
x 6
add to favorites
launch autoscroll
font size
0
reset
how to read this tab
guitar tuner
Tab Pro tools
  • play this tab
  • loop segment
  • change instrument
  • show fretboard
  • metronome
×
Best way to learn
"Damn Girl"
Autoscroll
slow
fast
+/-
esc
set tempo
stop
Contributor
Difficulty
novice
----------------------------------------------------------------------------
                             DAMN GIRL - All-American Rejects
----------------------------------------------------------------------------
Tabbed by:chris-james

Tuning: standard

Intro and Verse (palm muted) 

e|---------------------------------------------------------------------------------|
B|---------------------------------------------------------------------------------|
G|---------------------------------------------------------------------------------|
D|------------------------------------10-10-10-10-10-10-10-10-8-8-8-8-8-8-8-8------|
A|----5-5-5-5-5-5-5-5-8-8-8-8-8-8-8-8-8--8--8--8--8--8--8--8--6-6-6-6-6-6-6-6------|
E|----3-3-3-3-3-3-3-3-6-6-6-6-6-6-6-6----------------------------------------------|

Pre chorus (the second guitar plays the verse again once)

!During the pre chorus mute all notes played on the G string!
         
e|-------------------------------------------------------------------------------------|
B|--8---8---8---8---10-11---11---11---11----10---10---10---10---13---13---13---13------|
G|----7---7---7---7-------10---10---10---10----7----7----7----7----10---10---10---10---|
D|-------------------------------------------------------------------------------------|
A|-------------------------------------------------------------------------------------|
E|-------------------------------------------------------------------------------------|
       
e|-----------------------------------------------|
B|--11---11---11---11---11---11---11---11--------|
G|-----10---10---10---10---10---10---10---10-----|
D|-----------------------------------------------|
A|-----------------------------------------------|
E|-----------------------------------------------|

Chorus - Guitar 1 - x2

e|-------------------------------------------------------------------------------------------------|
B|-11-11-11-11-11-11-11-11-10-10-10-10-10-10-10-10-11-11-11-11-11-11-11-11-11-11-11-11-11-11-11-11-|
G|-10-10-10-10-10-10-10-10-10-10-10-10-10-10-10-10-10-10-10-10-10-10-10-10-10-10-10-10-10-10-10-10-|
D|-8--8--8--8--8--8--8--8--8--8--8--8--8--8--8--8--8--8--8--8--8--8--8--8--8--8--8--8--8--8--8--8--|
A|-------------------------------------------------------------------------------------------------|
E|-------------------------------------------------------------------------------------------------|

2nd Guitar - x2

e|-------------------------------------------------------------------------------------------------|
B|-------------------------------------------------------------------------------------------------|
G|-------------------------------------------------8--8--8--8--8--8--8--8--8--8--8--8--8--8--8--8--|
D|-------------------------------------------------8--8--8--8--8--8--8--8--8--8--8--8--8--8--8--8--|
A|-------------------------------------------------6--6--6--6--6--6--6--6--6--6--6--6--6--6--6--6--|
E|-------------------------------------------------------------------------------------------------|

Solo Lick

e|------------------------------------------------------------------------|
B|-----------/6-------------/6-------------/6-----------------------------|
G|--------------7--------------7--------------7----8----8-8-8-8-7---5-/-7-|
D|----------------------------------------------------------------8-------|
A|----3-/-5----------3-/-5----------3-/-5---------------------------------|
E|------------------------------------------------------------------------|

e|--------------------------------------------------------------------|
B|--------------------------------------------------------------------|
G|-------------8--------------------10---8----------8-----------------|
D|---3----5----8---------------8----10---8----------8---(repeated)----|
A|---3----5----6---------------8----8----6----------6-----------------|
E|---1----3--------------------6--------------------------------------|


| /  slide up
| \  slide down
| h  hammer-on
| p  pull-off
| ~  vibrato
| +  harmonic
| x  Mute note
============================================================================
comments
print report bad tab
1 comment total.
0 reply
necriononguitar wrote on August 15 2009, 10:24 am

hey good tab, 5* and everything
just a little "different" playwise... i guess everyone has his own way of playing, but its way easier to play this way, and professional musicians need a clear sound on a record.
so in the beginning, theres a 2. guitar that plays:
(palm muted of course
E------------------------------------------------------------
B------------------------------------------------------------
G------------------------------------------------------------
D------------------------------------------------------------
A---10-x8---8-x16---6-x7---8---------------------------------
E------------------------------------------------------------

and they use a half-step down tuning (in most of their songs) and this one is defintely half-step down. in the intro and verse ur chords are right, but he playes them different (f.e. by using the riff i told u before). and ofc u need a low E
E------------------------------------------------------
B------------------------------------------------------
G------------------------------------------------------
D------------4-----------------------------------------
A---6--------2--x8------4--------2-------4-------------
E---4--x8---------------2--x8----0--x7---2-------------

try it, im very sure its correct.
u can use it, i rate ur tab 5* and if u dont, ill just post the different way as a tab...
o yah, and in the pre-chorus, play this:
E---------------------------------------------------------------------
B-9--9--9----9-11-12--12--12--12----11--11--11----11-12-14--14--14--14
G---------------------------------------------------------------------
D---------------------------------------------------------------------
A---------------------------------------------------------------------
E---------------------------------------------------------------------

E-------------------------------------------------
B--12--12--12--12--12--12--12--12--12-------------
G-------------------------------------------------
D-------------------------------------------------
A-------------------------------------------------
E-------------------------------------------------

and a 2,3,4 or 5th guitar plays this^^:
E-----------------------------------
B-----------------------------------
G-----------------------------------
D-----------------------------------
A--2----2-4----4-6----6-7-----------
E-----------------------------------

in the chorus just use this:
E--7------6----------------------------
B--7-x8---7-x8-----and stop------------ u can here that he is
G-------------------------------------- using this method especially
D-------------------------------------- in the break.
A--------------------------------------
E--------------------------------------

the other guitars are playing this:
E---------------------------------------------------------------------
B---------------------------------------------------------------------
G--4-4----4---------------------some are playing the higher E---9-----
D--4-4----4----4-4----4----2------------------------------------9-----
A--2-2----2----4-4----4----2------------------------------------7-x16-
E--------------2-2----2----0-x16--------------------------------------

wow thats a lot. im sure that u might be angry or something, but i just want to help. i love tabbing and thi is a great song and a great tab, so please take a look at it. it took me some time to do this^^

Have a great day my friend!

I want to post or [tab]
guest
You may want to rate the tab now too:
select rating
Please do not post tabs as comments. Select "correction" instead!