Oops, an error
Loading. Please wait.

Damn Girl Tab

version 2
version 2

Whole song

4,034 views 1 this week
no commentswrite comment
1 2 3 4 5
please rate
add to favorites
launch autoscroll
font size
0
reset
how to read this tab
guitar tuner
Tab Pro tools
  • play this tab
  • loop segment
  • change instrument
  • show fretboard
  • metronome
×
Best way to learn
"Damn Girl"
Autoscroll
slow
fast
+/-
esc
set tempo
stop
Contributor
-------------------------------------------------------------------------------
                             Damn Girl – The All-American Rejects
-------------------------------------------------------------------------------
Tabbed by: balong

1/11/2009

Tuning: Half-Step Down
  Intro:
  Guitar 1
e|---------------------------------------------------------------------------|
B|---------------------------------------------------------------------------|
G|---------------------------------------------------------------------------|
D|-6-6-6-6-6-6-6-6--4-4-4-4-4-4-4-4--4-4-4-4-4-4-4-4--2-2-2-2-2-2-2-2--4-----|   x2
A|-6-6-6-6-6-6-6-6--4-4-4-4-4-4-4-4--4-4-4-4-4-4-4-4--2-2-2-2-2-2-2-2--4-----|
E|-4-4-4-4-4-4-4-4—-2-2-2-2-2-2-2-2--2-2-2-2-2-2-2-2--0-0-0-0-0-0-0-0--2-----|
   . . . . . . . .  . . . . . . . .  . . . . . . . .  . . . . . . . . .

  Verse 1:
  Guitar 1
e|---------------------------------------------------------------------------|
B|---------------------------------------------------------------------------|
G|---------------------------------------------------------------------------|
D|-6-6-6-6-6-6-6-6—-9-9-9-9-9-9-9-9--4-4-4-4-4-4-4-4--2-2-2-2-2-2-2-2--4-----|
A|-6-6-6-6-6-6-6-6—-9-9-9-9-9-9-9-9--4-4-4-4-4-4-4-4—-2-2-2-2-2-2-2-2--4-----|
E|-4-4-4-4-4-4-4-4—-6-6-6-6-6-6-6-6--2-2-2-2-2-2-2-2--0-0-0-0-0-0-0-0--2-----|
   . . . . . . . .  . . . . . . . .  . . . . . . . .  . . . . . . . . .

e|---------------------------------------------------------------------------|
B|---------------------------------------------------------------------------|
G|---------------------------------------------------------------------------|
D|-6-6-6-6-6-6-6-6—-9-9-9-9-9-9-9-9--4-4-4-4-4-4-4-4--4-4-4-4-4-4-4-4--------|
A|-6-6-6-6-6-6-6-6—-9-9-9-9-9-9-9-9--4-4-4-4-4-4-4-4—-4-4-4-4-4-4-4-4--------|
E|-4-4-4-4-4-4-4-4—-6-6-6-6-6-6-6-6--2-2-2-2-2-2-2-2--0-0-0-0-0-0-0-0--------|

  Pre-Chorus:
  Guitar 1
e|---------------------------------------------------------------------------|
B|---------------------------------------------------------------------------|
G|------------------------------------8-8-8-8-8-8-8-8--9-9-9-9-9-9-9-9-------|
D|-6-6-6-6-6-6-6--8--9-9-9-9-9-9-9-9--9-9-9-9-9-9-9-9--9-9-9-9-9-9-9-9-------|
A|-6-6-6-6-6-6-6--9—-9-9-9-9-9-9-9-9--6-6-6-6-6-6-6-6--7-7-7-7-7-7-7-7-------|
E|-4-4-4-4-4-4-4--6--7-7-7-7-7-7-7-7-----------------------------------------|

  Guitar 2
e|---------------------------------------------------------------------------|
B|-9-9-9-9-11-12--12--12--12--11--11--11--11--14--14--14--14-----------------|
G|--9-9-9-------11--11--11--11--11--11--11--11--11--11--11--11---------------|
D|---------------------------------------------------------------------------|
A|---------------------------------------------------------------------------|
E|---------------------------------------------------------------------------|

Guitar 1
e|---------------------------------------------------------------------------|
B|---------------------------------------------------------------------------|
G|-9-9-9-9-9-9-9-9-----------------------------------------------------------|
D|-9-9-9-9-9-9-9-9-----------------------------------------------------------|
A|-7-7-7-7-7-7-7-7-----------------------------------------------------------|
E|---------------------------------------------------------------------------|

  Guitar 2
e|---------------------------------------------------------------------------|
B|---------------------------------------------------------------------------|
G|-4-4-/-6--6-/-8-8-/-9-9-9-9-9-9-9-9----------------------------------------|
D| x-x-/-x--x-/-x-x-/-x-x-x-x-x-x-x-x----------------------------------------|
A|-2-2-/-4--4-/-6-6-/-8-8-8-8-8-8-8-8----------------------------------------|
E|---------------------------------------------------------------------------|

  Chorus:
  Guitar 1
e|---------------------------------------------------------------------------|
B|---------------------------------------------------------------------------|
G|---------------------------------------------------------------------------|
D|-9-9--9-\--4-4--4-\--2-2-2-2-2-2-2-2-2-2-2-2-2-2-2-2-----------------------| x2
A|-9-9--9-\--4-4--4-\--2-2-2-2-2-2-2-2-2-2-2-2-2-2-2-2-----------------------|
E|-7-7--7-\--2-2--2-\--0-0-0-0-0-0-0-0-0-0-0-0-0-0-0-0-----------------------|

  Guitar 2
e|---------------------------------------------------------------------------|
B|-12-12-12-12-12-12-12-12--11-11-11-11-11-11-11-11--------------------------|
G|-11-11-11-11-11-11-11-11--11-11-11-11-11-11-11-11--------------------------|
D|--9--9--9--9--9--9--9--9--11-11-11-11-11-11-11-11--------------------------|
A|---------------------------------------------------------------------------|
E|---------------------------------------------------------------------------|

e|---------------------------------------------------------------------------|
B|-12-12-12-12-12-12-12-12-12-12-12-12-12-12-12-12---------------------------|
G|-11-11-11-11-11-11-11-11-11-11-11-11-11-11-11-11---------------------------|
D|--9--9--9--9--9--9--9--9--9--9--9—-9—-9--9--9--9---------------------------|
A|---------------------------------------------------------------------------|
E|---------------------------------------------------------------------------|
  Repeat

  Intro for Verse 2:
  Guitar 1
e|---------------------------------------------------------------------------|
B|---------------------------------------------------------------------------|
G|----------------------------------------------------6-6-6-6-6-6-6-6--------|
D|-6-6-6-6-6-6-6-6--9-9-9-9-9-9-9-9--4-4-4-4-4-4-4-4--4-4-4-4-4-4-4-4--------|
A|-6-6-6-6-6-6-6-6--9-9-9-9-9-9-9-9--4-4-4-4-4-4-4-4--4-4-4-4-4-4-4-4--------|
E|-4-4-4-4-4-4-4-4--6-6-6-6-6-6-6-6--2-2-2-2-2-2-2-2-------------------------|

  Verse 2:
  Guitar 1
e|---------------------------------------------------------------------------|
B|---------------------------------------------------------------------------|
G|---------------------------------------------------------------------------|
D|-6-6-6-6-6-6-6-6—-9-9-9-9-9-9-9-9--4-4-4-4-4-4-4-4--2-2-2-2-2-2-2-2--4-----|
A|-6-6-6-6-6-6-6-6—-9-9-9-9-9-9-9-9--4-4-4-4-4-4-4-4—-2-2-2-2-2-2-2-2--4-----|
E|-4-4-4-4-4-4-4-4—-6-6-6-6-6-6-6-6--2-2-2-2-2-2-2-2--0-0-0-0-0-0-0-0--2-----|
   . . . . . . . .  . . . . . . . .  . . . . . . . .  . . . . . . . . .

e|---------------------------------------------------------------------------|
B|---------------------------------------------------------------------------|
G|---------------------------------------------------------------------------|
D|-6-6-6-6-6-6-6-6—-9-9-9-9-9-9-9-9--4-4-4-4-4-4-4-4--4-4-4-4-4-4-4-4--------|
A|-6-6-6-6-6-6-6-6—-9-9-9-9-9-9-9-9--4-4-4-4-4-4-4-4—-4-4-4-4-4-4-4-4--------|
E|-4-4-4-4-4-4-4-4—-6-6-6-6-6-6-6-6--2-2-2-2-2-2-2-2--0-0-0-0-0-0-0-0--------|
   . . . . . . . .  . . . . . . . .  . . . . . . . .  . . . . . . . . .

Pre-chorus x1
Chorus x1


  Bridge:
  Guitar 1:
e|---------------------------------------------------------------------------|
B|---------------------------------------------------------------------------|
G|-----------------8-8-8--9-9-9--11-11-11-11-11-11---------------------------|
D|-4-4-4-6-6-6--2--8-8-8--9-9-9--11-11-11-11-11-11---------------------------|
A|-4-4-4-6-6-6--2--6-6-6--7-7-7---9—-9--9--9--9—-9---------------------------|
E|-2-2-2-4-4-4--0------------------------------------------------------------|

e|---------------------------------------------------------------------------|
B|---------------------------------------------------------------------------|
G|---------------------------------------------------------------------------|
D|-4-4-4-6-6-6--2-2-2-2-2-2-2-2-2-2-2-2-2-2-2-2------------------------------|
A|-4-4-4-6-6-6--2-2-2-2-2-2-2-2-2-2-2-2-2-2-2-2------------------------------|
E|-2-2-2-4-4-4--0-0-0-0-0-0-0-0-0-0-0-0-0-0-0-0------------------------------|

Chorus

| /  slide up
| \  slide down
comments
We did not receive enough feedback on this tab! Please rate:
print report bad tab
1 2 3 4 5
I want to post or [tab]
guest
You may want to rate the tab now too:
select rating
Please do not post tabs as comments. Select "correction" instead!