Oops, an error
Loading. Please wait.

Damn Girl Tab

version 3
version 3

Whole song

8,498 views 12 this week
3 commentsread comments
1 2 3 4 5
excellent!
x 9
add to favorites
launch autoscroll
font size
0
reset
how to read this tab
guitar tuner
Tab Pro tools
  • play this tab
  • loop segment
  • change instrument
  • show fretboard
  • metronome
×
Best way to learn
"Damn Girl"
Autoscroll
slow
fast
+/-
esc
set tempo
stop
Contributor
Difficulty
Tuning
novice
D# G# C# F# A# D#
Artist: All-American Rejects
Song: Damn Girl
Album: When The World Comes Down
Tabbed by: necriononguitar (more then 35 other tabs)
e-mail: tim.rathgen@gmx.de (dont try to spam, i wont buy anything xD)

REAL FANS SUPPORT BANDS BY PURCHASING THEIR CDS!


Tuning: Half-Step Down

. = Palm-Muted
~ = hold note
^ = vibrate
p = pull off
h = hammer on
/ = slide up
\ = slide down


"""Intro"""
E---------------------------------------------------------------------------|
B---------------------------------------------------------------------------|
G---------------------------------------------------------------------------|
D---6-6-6-6-6-6-6-6---4-4-4-4-4-4-4-4---4-4-4-4-4-4-4-4---2-2-2-2-2-2-2--4--|
A---6-6-6-6-6-6-6-6---2-2-2-2-2-2-2-2---4-4-4-4-4-4-4-4---2-2-2-2-2-2-2--4--|
E---4-4-4-4-4-4-4-4---------------------2-2-2-2-2-2-2-2---0-0-0-0-0-0-0--2--|
    . . . . . . . .   . . . . . . . .   . . . . . . . .   . . . . . . .  .


"""Verse"""
E---------------------------------------------------------------------------|
B---------------------------------------------------------------------------|
G---------------------------------------------------------------------------|
D---6-6-6-6-6-6-6-6---4-4-4-4-4-4-4-4---4-4-4-4-4-4-4-4---2-2-2-2-2-2-2--4--|
A---6-6-6-6-6-6-6-6---2-2-2-2-2-2-2-2---4-4-4-4-4-4-4-4---2-2-2-2-2-2-2--4--|
E---4-4-4-4-4-4-4-4---------------------2-2-2-2-2-2-2-2---0-0-0-0-0-0-0--2--|
    . . . . . . . .   . . . . . . . .   . . . . . . . .   . . . . . . .  .


"""Pre-Chorus"""
Guitar 1
E---------------------------------------------------------------------------|
B---------------------------------------------------------------------------|
G---------------------------------------------------------------------------|
D--2-2-2-2-2-2-2-2---4-4-4-4-4-4-4-4---8-8-8-8-8-8-8-8---9-9-9-9-9-9-9-9----|
A--2-2-2-2-2-2-2-2---2-2-2-2-2-2-2-2---6-6-6-6-6-6-6-6---7-7-7-7-7-7-7-7----|
E--0-0-0-0-0-0-0-0----------------------------------------------------------|
   . . . . . . . .   . . . . . . . .   . . . . . . . .   . . . . . . . .

E--------------------------------------------------|
B--------------------------------------------------|
G--------------------------------------------------|
D--2-2-2-2-2-2-2-2--2-2-2-2-2-2-2-x----------------|
A--2-2-2-2-2-2-2-2--2-2-2-2-2-2-2-x----(15)--------|
E--0-0-0-0-0-0-0-0--0-0-0-0-0-0-0-x----------------|
   . . . . . . . .  . . . . . . . 


Guitar 2
E--------------------------------------------------------------------------|
B--9--9--9---9-11-12--12--12--12----11--11--11---11-12-14--14--14--14------|
G--------------------------------------------------------------------------|
D--------------------------------------------------------------------------|
A--------------------------------------------------------------------------|
E--------------------------------------------------------------------------|

E---------------------------------------------|
B--12--12--12--12--12--12--12--12-------------|
G---------------------------------------------|
D---------------------------------------------|
A---------------------------------------------|
E---------------------------------------------|


Guitar 3    (starts at the last chord in the pre-chorus, the E)
E------------------------------------|
B------------------------------------|
G------------------------------------|
D------------------------------------|
A--(2)--2-4---4-6---6-7--------------|
E------------------------------------|


"""Chorus"""
Guitar 1
E---------------------------------------------|
B---------------------------------------------|
G-(4)(4)---(4)--------------------------------|
D--4--4-----4------4-4---4-----2--------------|
A--2--2-----2------4-4---4-----2-x16----------|
E------------------2-2---2-----0--------------|


Guitar 2
E-----------------------------------------|
B-----------------------------------------|
G--4-4---4----------------(9)-------------|
D--4-4---4-----4-4---4-----9---x16--------|
A--2-2---2-----4-4---4-----7--------------|
E--------------2-2---2--------------------|


Guitar 3
E---7-7-7-7-7-7-7-7---7-7-7-7-7-7-7-7---7-7-7-7-7-7-7-7-7-7-7-7-7-7-7-7----|
B---7-7-7-7-7-7-7-7---6-6-6-6-6-6-6-6---7-7-7-7-7-7-7-7-7-7-7-7-7-7-7-7----|
G--------------------------------------------------------------------------|
D--------------------------------------------------------------------------|
A--------------------------------------------------------------------------|
E--------------------------------------------------------------------------|


"""Interlude"""   (same as intro and verse)
Guitar 1
E---------------------------------------------------------------------------|
B---------------------------------------------------------------------------|
G---------------------------------------------------------------------------|
D---6-6-6-6-6-6-6-6---4-4-4-4-4-4-4-4---4-4-4-4-4-4-4-4---2-2-2-2-2-2-2--4--|
A---6-6-6-6-6-6-6-6---2-2-2-2-2-2-2-2---4-4-4-4-4-4-4-4---2-2-2-2-2-2-2--4--|
E---4-4-4-4-4-4-4-4---------------------2-2-2-2-2-2-2-2---0-0-0-0-0-0-0--2--|
    . . . . . . . .   . . . . . . . .   . . . . . . . .   . . . . . . .  .


Guitar 2    sounds like a synth...
E---------------------------------------------------------------------------|
B--------7\4------------7\4-------------7\4---(4/)5--5-5-5-5\4--0h2--/4-----|
G---------------------------------------------------------------------------|
D---------------------------------------------------------------------------|
A--4/6-----------4/6--------------4/6---------------------------------------|
E---------------------------------------------------------------------------|


///REPEAT Verse\\\


///REPEAT Pre-Chorus\\\   (except guitar 3)
Guitar 3  
E--------------------------------------------|
B--------------------------------------------|
G--------------------------------------------|
D--------------------------------------------|
A--2-2-2-2--4-4-4-4--6-6-6-6--7-7-7-7--------|
E--------------------------------------------|
   . . . .  . . . .  . . . .  . . . .


///REPEAT Chorus\\\


"""Post-Chorus"""  (after the chorus they repeat the E)
Guitar 1                   Guitar 2
E---------------       E-----------------|
B---------------       B-----------------|
G---------------       G----9------------|
D---2-----------       D----9-x16--------|
A---2-x16-------       A----7------------|
E---0-----------       E-----------------|


"""Bridge"""
Guitar 1
E---------------------------------------------------------------------------|
B---------------------------------------------------------------------------|
G----------------------------------(4-4-4)----------------------------------|
D---4-4-4--6-6-6-6--2---------------4-4-4--6-6-6-6--4--x--4---x-x-x--4------|
A---4-4-4--6-6-6-6--2(let ring)-----2-2-2--6-6-6-6--4--x--4---x-x-x--4------|
E---2-2-2--4-4-4-4--0----------------------4-4-4-4--2--x--2---x-x-x--2------|

E---------------------------------------------------------------------------|
B---------------------------------------------------------------------------|
G---------------------------------------------------------------------------|
D---4-4-4--6-6-6-6--2--------------2----------------------------------------|
A---4-4-4--6-6-6-6--2-(let ring)---2-x15-(the last note cuts off)-----------|
E---2-2-2--4-4-4-4--0--------------0----------------------------------------|


Guitar 2    (starts at the last E)
E----------------------------------------------|
B----------------------------------------------|
G----------------------------------------------|
D----------------------------------------------|
A--2-2-2-2---4-4-4-4---6-6-6-6---7-7-7---------|
E----------------------------------------------|


"""Chorus"""
Guitar 3 starts off   (some kinda break-thing)
E---7-7-7-7-7-7-7-7--6-6-6-6-6-6-6-6--7-7-7-7-7-7-7-7-7-7-7-7-7-7-7-7------|
B---7-7-7-7-7-7-7-7--7-7-7-7-7-7-7-7--7-7-7-7-7-7-7-7-7-7-7-7-7-7-7-7------|
G--------------------------------------------------------------------------|
D--------------------------------------------------------------------------|
A--------------------------------------------------------------------------|
E--------------------------------------------------------------------------|

                  E--------------------------------------------------------|
                  B--------------------------------------------------------|
                  G--------------------------------------------------------|
      Guitar 1    D--4-4-4-4-4-4-4-4--2-2-2-2-2-2-2-2-2-2-2-2-2-2-2-2------|
                  A--4-4-4-4-4-4-4-4--2-2-2-2-2-2-2-2-2-2-2-2-2-2-2-2------|
                  E--2-2-2-2-2-2-2-2--0-0-0-0-0-0-0-0-0-0-0-0-0-0-0-0------|

                  E-------------------------------------------------------|
                  B-------------------------------------------------------|
                  G-------------------9-9-9-9-9-9-9-9-9-9-9-9-9-9-9-9-----|
      Guitar 2    D--4-4-4-4-4-4-4-4--9-9-9-9-9-9-9-9-9-9-9-9-9-9-9-9-----|
                  A--4-4-4-4-4-4-4-4--7-7-7-7-7-7-7-7-7-7-7-7-7-7-7-7-----|
                  E--2-2-2-2-2-2-2-2--------------------------------------|


Then play the chorus as usual


Outro-Chorus:  (pretty much the same, just one note added)
               Guitar 3 plays as usual
Guitar 1+2
E------------------------------------------------|
B------------------------------------------------|
G--4-4-4-4-4-4-----------------------------------|
D--4-4-4-4-4-4--6---4-4-4-4-4-4--6----2----------|
A--2-2-2-2-2-2--6---4-4-4-4-4-4--6----2-x16------|
E---------------4---2-2-2-2-2-2--4----0----------|



///REPEAT Post Chorus\\\


Outro:    INTERLUDE AND VERSE
Guitar 1   
E---------------------------------------------------------------------------|
B---------------------------------------------------------------------------|
G---------------------------------------------------------------------------|
D---6-6-6-6-6-6-6-6---4-4-4-4-4-4-4-4---4-4-4-4-4-4-4-4---2-2-2-2-2-2-2--4--|
A---6-6-6-6-6-6-6-6---2-2-2-2-2-2-2-2---4-4-4-4-4-4-4-4---2-2-2-2-2-2-2--4--|
E---4-4-4-4-4-4-4-4---------------------2-2-2-2-2-2-2-2---0-0-0-0-0-0-0--2--|
    . . . . . . . .   . . . . . . . .   . . . . . . . .   . . . . . . .  .

Guitar 2
E---------------------------------------------------------------------------|
B--------7\4------------7\4-------------7\4---(4/)5--5-5-5-5\4--0h2--/4-----|
G---------------------------------------------------------------------------|
D---------------------------------------------------------------------------|
A--4/6-----------4/6--------------4/6---------------------------------------|
E---------------------------------------------------------------------------|


Then Guitar 2 stops and Guitar 1 plays this
E--------------------------------------------------------|
B--------------------------------------------------------|
G--------------------------------------------------------|
D---6-6-6-6-6-6-6-6--4-4-4-4-4-4-4-4----2----------------|
A---6-6-6-6-6-6-6-6--2-2-2-2-2-2-2-2----2-(let ring)-----|
E---4-4-4-4-4-4-4-4---------------------0----------------|
    . . . . . . . .  . . . . . . . .   


Okay, thats it. Pretty long, i guess... But the other tabs were just horrible!

This one is pretty detailed and clear arranged, so please leave a comment and rate.

Thanks!

Cheers!
comments
print report bad tab
3 comments total.
0 reply
RocknRollKing wrote on May 10 2010, 08:46 am

lol gr8 tab

0 reply
UGrocker wrote on June 5 2010, 03:01 pm

wow nice one :)
seems very accurate!

0 reply
necriononguitar wrote on June 7 2010, 11:18 am

thanks man!

I want to post or [tab]
guest
You may want to rate the tab now too:
select rating
Please do not post tabs as comments. Select "correction" instead!