Oops, an error
Loading. Please wait.

Dance Inside Bass Tab

version 2
version 2

Whole song

Interactive

436 views 1 this week
no commentswrite comment
1 2 3 4 5
please rate
add to favorites
launch autoscroll
font size
0
reset
guitar tuner
Tab Pro tools
  • play this tab
  • loop segment
  • change instrument
  • show fretboard
  • metronome
×
Best way to learn
"Dance Inside"
Autoscroll
slow
fast
+/-
esc
set tempo
stop
Contributor
Difficulty
intermediate
Dance Inside

I'm fed up with seeing all these bass tabs without all of Tyson's fills...so 
here's how I play it!
Listen closely for all the fills.

Intro

g|-----------------------------------------------------------------------------|
d|-----------------------------------------------------------------------------|
a|-11\-444444444444-7777--------------7777--------------7777----------66666666-|
E|-----------------------555555555555------777777777777------00000000----------|

g|---------------------------------------------------------------------|
d|---------------------------------------------------------------------|
a|-4444444444444444-0000000000000000------------------6666666666666666-|
E|-----------------------------------0000000000000000------------------| x2

g|----------------------------------------------------------------------|
d|----------------------------------------------------------------------|
a|-4444444444444444-0000000000000000------------------77777777-66666666-|
E|-----------------------------------7777777777777777-------------------|

Verse

g|----------------------------------------|
d|-----------------------------------/676-|
a|-44-444-4-00-00-4/11----------66-66-----|
E|---------------------00-000-0-----------| x2

g|-----------------------------------------------------------|
d|-----------------------------------------------------------|
a|-44-00-----------764-764-76-44---7-00-----------764-764-76-|
E|-------/77777777---------------07-----/77777777------------|

Chorus (No bass)

Verse 2

g|------------------------------------------------------------------------------|
d|----------------------------------------------642-------246-------------------|
a|-11\-44444444-00000000----------66666666-44444----00000--------------66666666-|
E|-----------------------00000000-----------------------------00000000----------|

g|---------------------------------------------------------------|
d|---------------------------------------------------------------|
a|-44---7-00-----------764-764-76-44---7-00-----------764-764-76-|
E|----07-----/77777777---------------07-----/77777777------------|

Chorus 2

g|--------------------------------------|
d|--------------------------------------|
a|-44444444-00000000----------7777-6666-|
E|-------------------77777777-----------| x2

Solo 

g|--------------------------------------------------------------------|
d|--------------------------------------------------------------------|
a|-44444444-00000000----------7777-6666-44444444-00000000----------0~-|
E|-------------------77777777-----------------------------77777777----|

g|--------------------------------------|
d|--------------------------------------|
a|-77777777-66666666-44444444-0000------|
E|---------------------------------7777-| x2

Breakdown...I guess...

g|---------------------------------------------------------------------------------------------|
d|---------------------------------------------------------------------------------------------|
a|----------------------------------------------------------------------/999--/111111--/121212-|
E|-2222222222222222-4444444444444444-55555555555555555555555555555555-2-----2--------2---------|

Chorus 3

g|--------------------------------------|
d|--------------------------------------|
a|-44444444-00000000----------7777-6666-|
E|-------------------77777777-----------| x2

g|------------------------------------------|
d|------------------------------------------|
a|-444444-6h7-00000-67------------7777-6666-|
E|---------------------7777777777-----------| x2

g|-------------------------------|
d|-------------------------------|
a|-4~-0~----7xx-6xx-4~-0~---xx7~-|
E|-------7~--------------7~------|

END. (:
Any problems, email me at willgenius@live.co.uk 
Peace! 
comments
We did not receive enough feedback on this tab! Please rate:
print report bad tab
1 2 3 4 5
I want to post or [tab]
guest
You may want to rate the tab now too:
select rating
Please do not post tabs as comments. Select "correction" instead!