Oops, an error
Loading. Please wait.
We have an official Dirty Little Secret tab made by UG professional guitarists. Check out the tab »
×
277,642 views 48 this week
36 commentsread comments
1 2 3 4 5
x 62
add to favorites
×
Save as Personal and add changes to this tab that will be seen only by you. Learn more ›
×
You can save this tab as Personal to edit and correct it or add notes. All changes will be seen only by you. Learn more »
launch autoscroll
font size
0
reset
how to read this tab
guitar tuner
edit
Autoscroll
slow
fast
+/-
esc
set tempo
stop
Author
Unregistered
Okay so this is my first tab and I got mad that no one has tabbed this yet. Its a great 
and is STANDARD TUNING.It's %100 correct but it'll give a start to tabber and guitarists 
Enjoy!!

[Intro]

E|-------------------------|
B|-------------------------|
G|-------------------------| x5
D|-----8----8--6-6p5h6p5---|
A|-----------------------6-|
E|--6-----6----------------|
The first time the lead slides on the 6 on the A string. and the last time he only 
the pull-off section.


[Verse 1]

E|----------------------|
B|----------------------|
G|---------------8------|
D|8----0----5----8x7----|
A|8x7--0x7--5x7--6------|
E|6----5----3-----------|

Interlude:(Tell me all that you've thrown away....)
E|------------------------------|
B|-4----------------------------|
G|-5---------8------------------|
D|-5x6--5----8x6--(Rest)--8-----|
A|-3----5x6--6------------8x6---|
E|------3-----------------6-----|


[Chorus]

E|----------------------------|
B|----------------------------|
G|----8----- --8--------------|  x2
D|-8--8--5--3--8(hold---------|       You figure the struming pattern yourself.
A|-8--6--5--3--6--------------|
E|-6-----3--1-----------------|

Repeat Verse
Repeat Interlude
Repeat Chorus


[Bridge:]
E|-------|
B|-------|
G|----8--| x2
D|-5--8--|
A|-5--6--|
E|-3-----|

Then:
Play Bb a lot until Intro Repeats

Repeat Intro but jump an octave after a couple of times:
E|---13------13--11--11p10h11p10-----|
B|11-----11-----------------------11-|
G|-----------------------------------|
D|-----------------------------------|
A|-----------------------------------|
E|-----------------------------------|

Next: 
E|-------------|
B|-------------|
G|----8--------| x2
D|-8--8--5--3--|
A|-8--6--5--3--|
E|-6-----3--1--|

Repeat Chorus

I can't figure the little build up at the end but to make the guitar dieing noise jus 
your E-string out of tune after playing the final chord.. whic is Bb.

            
            
Suggest correction
Creating personal tab
Creating personal tab
You can edit any tab online and save it as your Personal.

You can edit, replace or remove any tab part or add personal notes – all changes will be seen only by you.

Personal tabs can be accessed anytime from any device, even offline.
Learn more »
comments
print report bad tab
36 comments total. Showing first comments.
0 reply
Uncommonresults 480 Jun 13, 2005 08:00 PM

I've never heard this song, is it new or unreleased or something?

0 reply
take_it_t 70 Jul 19, 2005 08:00 PM

It's a new song.

0 reply
AC/DC624 10 Jul 28, 2005 08:00 PM

wow this song is awesome they do it great live

guest
Wanna post a correction for this tab? Suggest correction