Oops, an error
Loading. Please wait.

Dirty Little Secret Tab

version 2
27,238 views 3 this week
7 commentsread comments
1 2 3 4 5
worth learning
x 18
add to favorites
launch autoscroll
font size
0
reset
how to read this tab
guitar tuner
Tab Pro tools
  • play this tab
  • loop segment
  • change instrument
  • show fretboard
  • metronome
×
Best way to learn
"Dirty Little Secret"
Autoscroll
slow
fast
+/-
esc
set tempo
stop
Song: Dirty Little Secret
Album: Move Along
Artist: All-American Rejects
Tabbed by: Dean Trantham

--6---6----------|
-----------------|
-----------------|  x3
8---8---66565----|
8---8--------6---|
6---6------------|

--6---6--------------|
---------------------|
---------------------|
8---8---66565-66565--|
8---8--------6-----6-|
6---6----------------|

-----------------------------------------------------|
-----------------------------------------------------|
-----------------------------------------------------|
---------10-10-10-10-10-10-10-10-55555555-88888888---|  x2
88888888--8--8--8--8--8--8--8--8-55555555-66666666---|
66666666---------------------------------------------|

--------------------------------------------|
--------------------------------------------|
--------------------------------------------|
8-88-8-88-5-55-5-55-8-88-8-88-3-33-33333333-|
8-66-8-88-5-55-5-55-8-88-8-88-3-33-33333333-|
6-66-6-66-3-33-3-33-6-66-6-66-1-11-11111111-|

-----------------------------------     --------|
-----------------------------------     --------|
---------88888888------------------     --------|
88888888-88888888-55555555-33333333 x2  8-8-8-8-|
88888888-66666666-55555555-33333333     8-6-6-6-|
66666666----------33333333-11111111     6-6-6-6-|

10-10-10-10-10-10-10-10--8-8-8-8-8-8-8-8--10-10-10-10-10-10-10-10-11-11-11-11-11-11-11-11--|
11-11-11-11-11-11-11-11-11-11-11-11-11-11-11-11-11-11-11-11-11-11-11-11-11-11-11-11-11-11--|
-------------------------------------------------------------------------------------------|
-------------------------------------------------------------------------------------------|
-------------------------------------------------------------------------------------------|
-------------------------------------------------------------------------------------------|

10-10-10-10-10-10-10-10--8-8-8-8-8-8-8-8--10-10-10-10-10-10-10-10-6-6-6-6-6-6-6-6-|
11-11-11-11-11-11-11-11-11-11-11-11-11-11-11-11-11-11-11-11-11-11-6-6-6-6-6-6-6-6-|
----------------------------------------------------------------------------------|
----------------------------------------------------------------------------------|
----------------------------------------------------------------------------------|
----------------------------------------------------------------------------------|

--------------------------------------------|
--------------------------------------------|
--------------------------------------------|
8-88-8-88-5-55-5-55-8-88-8-88-3-33-33333333-|
8-66-8-88-5-55-5-55-8-88-8-88-3-33-33333333-|
6-66-6-66-3-33-3-33-6-66-6-66-1-11-11111111-|

-----------------------------------     --------|
-----------------------------------     --------|
---------88888888------------------     --------|
88888888-88888888-55555555-33333333 x2  8-8-8-8-|
88888888-66666666-55555555-33333333     8-8-8-8-|
66666666----------33333333-11111111     6-6-6-6-|

----------------------------------|
----------------------------------|
-----------------8888888888888888-|
5555555555555555-8888888888888888 x2
5555555555555555-6666666666666666
3333333333333333-----------------

--6---6---------6---6------8/10--13--13-11-11-10-11-10----13--13-11-11-10-11-10---|
-------------------------------11--11-----------------11-11--11----------------11-|
----------------------------------------------------------------------------------|
8---8---66565--8--8---66565-------------------------------------------------------|
8---8--------6-8--8---------------------------------------------------------------|
6---6----------6--6---------------------------------------------------------------|

----------------------------------------------------|
----------------------------------------------------|
----------------------------------------------------|
---------88888888-55555555-10-10-10-10-10-10-10-10--| x2
88888888-66666666-55555555-8--8--8--8--8--8--8--8---|
66666666--------------------------------------------|

-------------------------------------|
-------------------------------------|
---------88888888--------------------|
88888888-88888888-55555555-33333333--| x2
88888888-66666666-55555555-33333333--|
66666666----------33333333-11111111--|

---------------------------------------------------------------------------------|
---------------------------------------------------------------------------------|
---------------------------------------------------------------------------------|
88888888/10-10-10-10-10-10-10-10/12-12-12-12-12-12-12-12/13-13-13-13-13-13-13-13-|
---------------------------------------------------------------------------------|
66666666/-8--8--8--8--8--8--8--8/10-10-10-10-10-10-10-10/11-11-11-11-11-11-11-11-|

--6---6----------6---6--------|
------------------------------|
------------------------------|
8---8---66565--8---8---665653-|
8---8--------6-8---8----------|
6---6----------6---6----------|
comments
print report bad tab
7 comments total. Showing first comments.
0 reply
Gibsonguy64 wrote on July 25 2005, 12:00 am

totally wrong!!!!! PROPS TO WHO EVER TABS VERSION 1!

0 reply
NevetsSymbiote wrote on September 15 2005, 12:00 am

there are a lot of mistakes in this, like every riff has something wrong

0 reply
Guitartim wrote on July 30 2006, 10:16 pm

I personally didn't find anything wrong with it. I thought it was great and easy to play.

I want to post or [tab]
guest
You may want to rate the tab now too:
select rating
Please do not post tabs as comments. Select "correction" instead!