Oops, an error
Loading. Please wait.

Dirty Little Secret Bass Tab

version 6
3,535 views 3 this week
no commentswrite comment
1 2 3 4 5
accurate
x 4
add to favorites
launch autoscroll
font size
0
reset
guitar tuner
Tab Pro tools
  • play this tab
  • loop segment
  • change instrument
  • show fretboard
  • metronome
×
Best way to learn
"Dirty Little Secret"
Autoscroll
slow
fast
+/-
esc
set tempo
stop
Contributor
Difficulty
Intro: Bass comes in 3rd time round

G|----------------------------------------------|
D|-------------------------------------66666666-|
A|----------------------------------------------|
E|-66666666-44444444-66666666-44444444----------|

Verse: Bass comes in 2nd time

G|------------------------------------|
D|------------------------------------|X2
A|----------------------------55555555|
E|-55555555-00000000-22222222---------|

Pre Chorus:

G|---------------------------------------|
D|---------------------------------------|
A|-3-33-3-33-----------6-66-6-66-88888888|
E|-----------3-33-3-33-------------------|

Chorus:

G|------------------------------------|  |--------|
D|------------------------------------|X2|--------|
A|----------66666666------------------|  |-6-6-6-6|
E|-66666666----------33333333-11111111|  |--------|

Verse:

G|------------------------------------|
D|------------------------------------|
A|----------------------------55555555|X2
E|-55555555-00000000-22222222---------|

Pre Chorus:

G|---------------------------------------|
D|---------------------------------------|
A|-3-33-3-33-----------6-66-6-66-88888888|
E|-----------3-33-3-33-------------------|

Chorus:

G|------------------------------------|  |--------|
D|------------------------------------|X2|--------|
A|----------66666666------------------|  |-6-6-6-6|
E|-66666666----------33333333-11111111|  |--------|

Bridge/Solo:

G|--------------------------------|
D|--------------------------------|X3
A|-----------------5-5-5-5-5-5-5-5|
E|-2-2-2-2-2-2-2-2----------------|

Intro:

G|------------------------------------|
D|------------------------------------|X2
A|------------------------------------|
E|-66666666-44444444-66666666-44444444|

Link:

G|------------------------------------|  
D|------------------------------------|X2
A|----------66666666------------------|  
E|-66666666----------33333333-11111111|  

Chorus:

G|------------------------------------|  
D|------------------------------------|X2
A|----------66666666------------------|  
E|-66666666----------33333333-11111111|

Outro:

G|-----------------------------------|
D|-----------------------------------|
A|-66666666-88888888-1010101010101010|
E|-----------------------------------|

Intro:

G|------------------------------------|
D|------------------------------------|
A|------------------------------------|
E|-66666666-44444444-66666666-44444444|
comments
print report bad tab
I want to post or [tab]
guest
You may want to rate the tab now too:
select rating
Please do not post tabs as comments. Select "correction" instead!