Oops, an error
Loading. Please wait.

Happy Endings Tab

5,826 views 6 this week
9 commentsread comments
1 2 3 4 5
x 7
add to favorites
launch autoscroll
font size
0
reset
how to read this tab
guitar tuner
×
Best way to learn
"Happy Endings"
Autoscroll
slow
fast
+/-
esc
set tempo
stop
Author
Song: Happy Endings
Artist: All-American Rejects
Album: (self titled)
Tabbed by: Eric M. (rufioyc@hotmail.com)



Intro/Chorus: (Guitar 1) (keep repeating)
e|----------------------------------------|
B|----------------------------------------|
G|--6-6-6-6-6-6-6-6-6-6-6-6-6-------------|
D|--x-x-x-x-x-x-x-x-x-x-x-x-x-------------|
A|--4-4-4-4-4-4-4-4-4-4-4-4-4...----------|
E|----------------------------------------|


Intro/Chorus: (Guitar 2)                                           (x2)
e|--------------------------------------------------------------------|
B|--------------------------------------------------------------------|
G|--6666666666666666----------------8888888888888888------------------|
D|--6666666666666666444444444444444488888888888888884444444444444444--|
A|--4444444444444444444444444444444466666666666666664444444444444444--|
E|------------------2222222222222222----------------2222222222222222--|


Verse 1: (Both Guitars) "Time does tell..." (x2)
e|-----------------------------------------|
B|-----------------------------------------|
G|--xx6666xx6666xx4444xx6666xx-------------|
D|--xx6666xx6666xx4444xx6666xx4444xx4444xx-|
A|--xx4444xx4444xx2222xx4444xx4444xx4444xx-|
E|----------------------------2222xx2222xx-|


Piano and Drums start playing: "You - you ask me what went wrong..."	


Intro/Chorus: (x2)  "Happy endings..."
			               

Verse 2: (Both Guitars) "Walks alone, have often lead to thinking..."
				       (x2) End with this.
e|----------------------------------------|---------------|
B|----------------------------------------|---------------|
G|----------------6666xx6666xx4444xx6666xx|---------------|
D|--xx4444xx4444xx6666xx6666xx4444xx6666xx|-4444xx4444xx--|
A|--xx4444xx4444xx4444xx4444xx2222xx4444xx|-4444xx4444xx--|
E|--xx2222xx2222xx------------------------|-2222xx2222xx--|


Piano and Drums start playing again: "You - you ask me what went wrong..."	


Intro/Chorus: (x2)  "Happy endings..."


Interlude: (Repeated many times) "She walks away, she talks away..."
e|--------------------------|
B|----7h6-7h6-9-6-7h6-7h6---|
G|--6-----------------------|
D|--------------------------|
A|--------------------------|
E|--------------------------|


Outro: (Keep repeating the Intro/Chorus)


This song is pretty easy but I'm not to sure about the interlude,
it was harder to make out. If you have any comments or corrections
please email me so I can learn from my mistakes. Thanx,

Enjoy,
Suggest correction
comments
print report bad tab
9 comments total. Showing first comments.
0 reply
DJ8008 75 Jul 28, 2003 08:00 PM

I think the 2nd guitarist in the intro is playing this riff along with the chords to the intro

E---------------------------
B-13/11/10/6---------
G----------------------
D------------------------
A---------------------
E-----------------------

0 reply
Allyrocks 50 Nov 28, 2003 07:00 PM

two thumbs up, but the beginning made me feel like i was playing the strokes.......

-2 reply
andyrobsonetc 100 Aug 07, 2004 08:00 PM

I LOVE THE ***ING AXE WOUND MAN

guest
You may want to rate the tab now too:
select rating
Wanna post a correction for this tab? Suggest correction