Oops, an error
Loading. Please wait.

Im Waiting tab

version 3
version 3

Whole song

Interactive

1,382 views 3 this week
no commentswrite comment
1 2 3 4 5
2 more votes to show rating
add to favorites
×
Save as Personal and add changes to this tab that will be seen only by you. Learn more ›
×
You can save this tab as Personal to edit and correct it or add notes. All changes will be seen only by you. Learn more »
launch autoscroll
font size
0
reset
how to read this tab
guitar tuner
edit
Autoscroll
slow
fast
+/-
esc
set tempo
stop
------------------------------------------------------------------------
		I'm Waiting -  ALL AMerican REjects
-------------------------------------------------------------------------
Tabbed by:nofxmike		
Email:yeahrightspammers@gofyourselves.spammers.com
I changed a few of the Chords in the chorus to sound more like the song. comments always welcome.
Drop D Tuning:DADgbe


   HOok 1 (INTRO):

Phrase 1: 

   Guitar I
e|------------------------------------------|
B|------------------------------------------|
G|--4-4------------7-7----------7\----------|
D|--2-2------------5-5----------5\----------|
A|--2-2------------5-5----------5\----------|
D|--2-2------------5-5----------5\----------|
    
   Guitar II

e|------------------------------------------|
B|------------------------------------------|
G|------7--7----7------7--7----7\-----------|
D|------------------------------------------|
A|------5--5----5------5--5----5\-----------|
D|------------------------------------------|
           .    .         .    .



Phrase 2:

   Guitar I
     D5              Dmaj7
e|------------------------------------------|
B|---3-3-3-3-3-3-3-3-2-2-2-2-2-2-2-2--------|
G|---2-2-2-2-2-2-2-2-2-2-2-2-2-2-2-2--------|
D|---0-0-0-0-0-0-0-0-0-0-0-0-0-0-0-0--------|
A|---0-0-0-0-0-0-0-0-0-0-0-0-0-0-0-0--------|
D|---0-0-0-0-0-0-0-0-0-0-0-0-0-0-0-0--------|


   Guitar II
e|------------------------------------------|
B|------------------------------------------|
G|-----7-7--7----7-----6-6--6----6\---------|
D|-----5-5-------------4-4------------------|
A|-----5-5--5----5-----4-4--4----4\---------|
D|------------------------------------------|
            .    .          .    .

   Guitar I
e|------------------------------------------|
B|------------------------------------------|
G|--4-4--4---4----4--7-7--7--7----7\--------|
D|--2-2--2---2----2--5-5--5--5----5\--------|
A|--2-2--2---2----2--5-5--5--5----5\--------|
D|--2-2--2---2----2--5-5--5--5----5\--------|
    
   Guitar II

e|------------------------------------------|
B|------------------------------------------|
G|-------7---7----7-------7--7----7\--------|
D|------------------------------------------|
A|-------5---5----5-------5--5----5\--------|
D|------------------------------------------|
             .    .          .    .


   Guitar I                  
     D5               Dmaj7
e|------------------------------------------|
B|---3-3-3-3-3-3-3-3-2-2-2-2-2-2-2-2--------|
G|---2-2-2-2-2-2-2-2-2-2-2-2-2-2-2-2--------|
D|---0-0-0-0-0-0-0-0-0-0-0-0-0-0-0-0--------|
A|---0-0-0-0-0-0-0-0-0-0-0-0-0-0-0-0--------|
D|---0-0-0-0-0-0-0-0-0-0-0-0-0-0-0-0--------|

   Guitar II
	
e|------------------------------------------|
B|------------------------------------------|
G|-----7-7--7----7-----6-6--6----6\---------|
D|-----5-5-------------4-4------------------|
A|-----5-5--5----5-----4-4--4----4\---------|
D|------------------------------------------|
            .    .          .    .

   VERSE 1:

   One question,        what can't be done?
    Guitar I
e|----------------------------------------|
B|----------------------------------------|
G|----------------------------------------|
D|------- 4-4-5-5-------7-7--5-5----------|
A|--2-2-2---------5-5-5-----------5--5----|
D|--2-2-2---------5-5-5-------------------|
    PM Throughout

    GUiTAR II
e|----------------------------------------|
B|----------------------------------------|
G|--4-4------------7-7-----------7--------|
D|--2-2------------5-5-----------5--------|
A|--2-2------------5-5-----------5--------|
D|--2-2------------5-5-----------5--------|
    ^ ^		   ^ ^	         ^
      .		     .



   You tear me down with the same thing

    Guitar II(with delay)(notes in parentheses produced by delay)
e|-----------------------------------------|
B|-----------------------------------------|
G|--7-7-(7)--(7)--(7)--6--(6)--(6)--(6)-7-6|
D|--7-7-(7)--(7)--(7)--7--(7)--(7)--(7)----|
A|--5-5------------------------------------|
D|-----------------------------------------|
      .  .    .    .   .   .    .    .

  There's nothing, the end, it's begun
   Guitar I
e|----------------------------------------|
B|----------------------------------------|
G|----------------------------------------|
D|------- 4-4-5-5-------7-7--5-5----------|
A|--2-2-2---------5-5-5----------5--5-----|
D|--2-2-2---------5-5-5-------------------|
    PM Throughout


 GUiTAR II
    ___            
    | |             
    / /           
e|----------------------------------------|
B|----------------------------------------|
G|--4-4------------7-7-----------7--------|
D|--2-2------------5-5-----------5--------|
A|--2-2------------5-5-----------5--------|
D|--2-2------------5-5-----------5--------|
    ^ ^		   ^ ^	         ^
      .		     .


   What   can you do       when it all drains
    Guitar II(with delay)
    ___
    | |
    / /
e|-----------------------------------------|
B|-----------------------------------------|
G|--7-7-(7)--(7)--(7)--6--(6)--(6)--(6)-7-6|
D|--7-7-(7)--(7)--(7)--7--(7)--(7)--(7)----|
A|--5-5------------------------------------|
D|-----------------------------------------|
      .  .    .    .   .   .    .    .



PRe-chorus:

   (Down)       There you go, (always)
    Guitar I
e|------------------------------------|
B|------------------------------------|
G|--6---6---6---6---7---7---7---7-----|
D|----4---4---4---4---5---5---5---5---|
A|------------------------------------|
D|------------------------------------|

   GUitar II
e|------------------------------------|
B|------------------------------------|
G|--6--6--6---6---6---7--7--7--7---7--|
D|--4--4--4---4-4-4---5--5--5--5-5-5--|
A|--4--4--4---4-4-4---5--5--5--5-5-5--|
D|------------------------------------|
  PM|--------|^|-|^  |--------|^|-|^        


  See       ``if   i   care   (fading)
   Guitar I
e|------------------------------------|
B|------------------------------------|
G|--9---9---9---9----7----7----7------|
D|----7---7---7---7----5----5-----5---|
A|------------------------------------|
D|------------------------------------|

   GUitar II
e|------------------------------------|
B|------------------------------------|
G|--9--9--9---9---9---7--7--7--7---7--|
D|--7--7--7---7-7-7---5--5--5--5-5-5--|
A|--7--7--7---7-7-7---5--5--5--5-5-5--|
D|------------------------------------|
  PM|--------|^|-|^  |--------|^|-|^          


  (Down) don't you know where I'll be?

  Guitar I
e|------------------------------------|
B|------------------------------------|
G|--6---6---6---6---7---7---7---7-----|
D|----4---4---4---4---5---5---5---5---|
A|------------------------------------|
D|------------------------------------|

    GUitar II
e|-------------------------------------|
B|-------------------------------------|
G|--6--6--6---7---6h7-7--7--7---9---7p9|
D|--4--4------0-0-0---0--0------0-0-0--|
A|--4--4------0-0-0---0--0------0-0-0--|
D|-------------------------------------|
  PM      ^   ^   ^         ^   ^   ^ LET RING 



   'Cause I'm here,        on my own
   Guitar III(harmonics=*)
e|-------------------------------------|
B|-------------------------------------|
G|-(9)---------------------------7*----|
D|-(0)---------------------------------|
A|-(0)---------------------9*-7*-------|
D|-------------------------------------|
LET RING
FIRST Chorus:

     Wait       -ing,      when I'm 
    
e|------------------------------------------|
B|------------------------------------------|
G|---7-7-7-7-7-7-7-7-6-6-6-6-6-6-6-6--------|
D|---0-0-0-0-0-0-0-0-4-4-4-4-4-4-4-4--------|
A|---0-0-0-0-0-0-0-0-4-4-4-4-4-4-4-4--------|
D|---0-0-0-0-0-0-0-0------------------------|


     wait       -ing
     
e|------------------------------------------|
B|------------------------------------------|
G|---9-9-9-9-9-9-9-9-6-6-6-6-6-6-6-6--------|
D|---7-7-7-7-7-7-7-7-4-4-4-4-4-4-4-4--------|
A|---7-7-7-7-7-7-7-7-4-4-4-4-4-4-4-4--------|
D|---7-7-7-7-7-7-7-7-4-4-4-4-4-4-4-4--------|

     I've been here before
     
e|------------------------------------------|
B|------------------------------------------|
G|---7-7-7-7-7-7-7-7-9-9-9-9-9-9-9-9--------|
D|---5-5-5-5-5-5-5-5-7-7-7-7-7-7-7-7--------|
A|---5-5-5-5-5-5-5-5-7-7-7-7-7-7-7-7--------|
D|---5-5-5-5-5-5-5-5-7-7-7-7-7-7-7-7--------|

And I don't care where I'm going So I'll stay

                   
e|------------------------------------------|
B|------------------------------------------|
G|---7-7-7-7-7-7-7-7-7-7-7-7-7-7-7-7--------|
D|---0-0-0-0-0-0-0-0-0-0-0-0-0-0-0-0--------|
A|---0-0-0-0-0-0-0-0-0-0-0-0-0-0-0-0--------|
D|---0-0-0-0-0-0-0-0-0-0-0-0-0-0-0-0--------|



HOOK 1:(intro)
   Guitar I
   
e|------------------------------------------|
B|------------------------------------------|
G|--4-4--4---4----4--7-7--7--7----7\--------|
D|--2-2--2---2----2--5-5--5--5----5\--------|
A|--2-2--2---2----2--5-5--5--5----5\--------|
D|--2-2--2---2----2--5-5--5--5----5\--------|
    ^ ^	     .    .  ^ ^  	       
      .		       .

   Guitar II
         
e|------------------------------------------|
B|------------------------------------------|
G|-------7---7----7-------7--7----7\--------|
D|------------------------------------------|
A|-------5---5----5-------5--5----5\--------|
D|------------------------------------------|
             .    .          .    .







   Verse 2:
    When you walk, don't leave a note
    Guitar I
    
e|----------------------------------------|
B|----------------------------------------|
G|----------------------------------------|
D|------- 4-4-5-5-------7-7--5-5----------|
A|--2-2-2---------5-5-5----------5--5-----|
D|--2-2-2---------5-5-5-------------------|
    PM Throughout


    GUiTAR II
    
e|----------------------------------------|
B|----------------------------------------|
G|--4-4------------7-7-----------7--------|
D|--2-2------------5-5-----------5--------|
A|--2-2------------5-5-----------5--------|
D|--2-2------------5-5-----------5--------|
    ^ ^		   ^ ^	         ^
      .		     .

   Just put your hands on the back door
e|-----------------------------------------|
B|-----------------------------------------|
G|--7-7-(7)--(7)--(7)--6--(6)--(6)--(6)-7-6|
D|--7-7-(7)--(7)--(7)--7--(7)--(7)--(7)----|
A|--5-5------------------------------------|
D|-----------------------------------------|
      .  .    .    .   .   .    .    .

    When you talk, it's just a joke
    Guitar I
e|----------------------------------------|
B|----------------------------------------|
G|----------------------------------------|
D|------- 4-4-5-5-------7-7--5-5----------|
A|--2-2-2---------5-5-5----------5--5-----|
D|--2-2-2---------5-5-5-------------------|
    PM Throughout


    GUiTAR II
e|----------------------------------------|
B|----------------------------------------|
G|--4-4------------7-7-----------7--------|
D|--2-2------------5-5-----------5--------|
A|--2-2------------5-5-----------5--------|
D|--2-2------------5-5-----------5--------|
    ^ ^		   ^ ^	         ^
      .		     .

    Just know, I can't take it anymore
e|-----------------------------------------|
B|-----------------------------------------|
G|--7-7-(7)--(7)--(7)--6--(6)--(6)--(6)-7-6|
D|--7-7-(7)--(7)--(7)--7--(7)--(7)--(7)----|
A|--5-5------------------------------------|
D|-----------------------------------------|
      .  .    .    .   .   .    .    .






PRe-chorus:

   (Down)       There you go, always
    Guitar I
e|------------------------------------|
B|------------------------------------|
G|--6---6---6---6---7---7---7---7-----|
D|----4---4---4---4---5---5---5---5---|
A|------------------------------------|
D|------------------------------------|

   GUitar II
e|------------------------------------|
B|------------------------------------|
G|--6--6--6---6---6---7--7--7--7---7--|
D|--4--4--4---4-4-4---5--5--5--5-5-5--|
A|--4--4--4---4-4-4---5--5--5--5-5-5--|
D|------------------------------------|
  PM|--------|^|-|^  |--------|^|-|^        


  See       ``if   i   care   (fading)
   Guitar I
e|------------------------------------|
B|------------------------------------|
G|--9---9---9---9----7----7----7------|
D|----7---7---7---7----5----5-----5---|
A|------------------------------------|
D|------------------------------------|

   GUitar II
e|------------------------------------|
B|------------------------------------|
G|--9--9--9---9---9---7--7--7--7---7--|
D|--7--7--7---7-7-7---5--5--5--5-5-5--|
A|--7--7--7---7-7-7---5--5--5--5-5-5--|
D|------------------------------------|
  PM|--------|^|-|^  |--------|^|-|^          


  (Down) don't you know where I'll be?

  Guitar I
e|------------------------------------|
B|------------------------------------|
G|--6---6---6---6---7---7---7---7-----|
D|----4---4---4---4---5---5---5---5---|
A|------------------------------------|
D|------------------------------------|

  GUitar II
e|-------------------------------------|
B|-------------------------------------|
G|--6--6--6---7---6h7-7--7--7---9---7p9|
D|--4--4------0-0-0---0--0------0-0-0--|
A|--4--4------0-0-0---0--0------0-0-0--|
D|-------------------------------------|
  PM      ^   ^   ^         ^   ^   ^ LET RING 



   'Cause I'm here,        by my own
   Guitar III(harmonics=*)
e|-------------------------------------|
B|-------------------------------------|
G|-(9)---------------------------7*----|
D|-(0)---------------------------------|
A|-(0)---------------------9*-7*-------|
D|-------------------------------------|
LET RING

Back to Chorus:
SECOND Chorus:

     Wait       -ing,      when I'm 
     D5               Dmaj7
e|------------------------------------------|
B|---3-3-3-3-3-3-3-3-2-2-2-2-2-2-2-2--------|
G|---2-2-2-2-2-2-2-2-2-2-2-2-2-2-2-2--------|
D|---0-0-0-0-0-0-0-0-0-0-0-0-0-0-0-0--------|
A|---0-0-0-0-0-0-0-0-0-0-0-0-0-0-0-0--------|
D|---0-0-0-0-0-0-0-0-0-0-0-0-0-0-0-0--------|



     wait       -ing        (DOn't You know?)
     
e|------------------------------------------|
B|------------------------------------------|
G|---9-9-9-9-9-9-9-9-6-6-6-6-6-6-6-6--------|
D|---7-7-7-7-7-7-7-7-7-7-7-7-7-7-7-7--------|
A|---7-7-7-7-7-7-7-7-0-0-0-0-0-0-0-0---------|
D|---7-7-7-7-7-7-7-7-0-0-0-0-0-0-0-0--------|

        I'll Tell you once more
     
e|------------------------------------------|
B|------------------------------------------|
G|---7-7-7-7-7-7-7-7-9-9-9-9-9-9-9-9--------|
D|---5-5-5-5-5-5-5-5-7-7-7-7-7-7-7-7--------|
A|---5-5-5-5-5-5-5-5-7-7-7-7-7-7-7-7--------|
D|---5-5-5-5-5-5-5-5-7-7-7-7-7-7-7-7--------|

And I don't care where I'm going So I'll be
                   
e|------------------------------------------|
B|------------------------------------------|
G|---7-7-7-7-7-7-7-7-7-7-7-7-7-7-7-7/9-9-9-9|
D|---0-0-0-0-0-0-0-0-0-0-0-0-0-0-0-0/7-7-7-7|
A|---0-0-0-0-0-0-0-0-0-0-0-0-0-0-0-0/7-7-7-7|
D|---0-0-0-0-0-0-0-0-0-0-0-0-0-0-0-0/7-7-7-7|


    Wait       -ing,      when I'm 
     
e|------------------------------------------|
B|---3-3-3-3-3-3-3-3-2-2-2-2-2-2-2-2--------|
G|---2-2-2-2-2-2-2-2-2-2-2-2-2-2-2-2--------|
D|---0-0-0-0-0-0-0-0-0-0-0-0-0-0-0-0--------|
A|---0-0-0-0-0-0-0-0-0-0-0-0-0-0-0-0--------|
D|---0-0-0-0-0-0-0-0-0-0-0-0-0-0-0-0--------|

   
     wait       -ing        (DOn't You know?)

     					I'll
e|------------------------------------------|
B|------------------------------------------|
G|---9-9-9-9-9-9-9-9-6-6-6-6-6-6-6-6--------|
D|---7-7-7-7-7-7-7-7-7-7-7-7-7-7-7-7--------|
A|---7-7-7-7-7-7-7-7-0-0-0-0-0-0-0-0--------|
D|---7-7-7-7-7-7-7-7-0-0-0-0-0-0-0-0--------|


       Tell you once more
     
e|------------------------------------------|
B|------------------------------------------|
G|---7-7-7-7-7-7-7-7-9-9-9-9-9-9-9-9--------|
D|---5-5-5-5-5-5-5-5-7-7-7-7-7-7-7-7--------|
A|---5-5-5-5-5-5-5-5-7-7-7-7-7-7-7-7--------|
D|---5-5-5-5-5-5-5-5-7-7-7-7-7-7-7-7--------|

That as long as you're gone     Then I'll stay

                   
e|------------------------------------------|
B|------------------------------------------|
G|---7-7-7-7-7-7-7-7-7-7-7-7-7-7-7-7/9-9-9-9|
D|---0-0-0-0-0-0-0-0-0-0-0-0-0-0-0-0/7-7-7-7|
A|---0-0-0-0-0-0-0-0-0-0-0-0-0-0-0-0/7-7-7-7|
D|---0-0-0-0-0-0-0-0-0-0-0-0-0-0-0-0/7-7-7-7|
Bridge:

   Outside! 

       
    Guitar I
    
e|------------------------------------|
B|--3-3-3-3-3-3-3-3-2-2-2-2-2-2-2-2-2-|
G|---2-2-2-2-2-2-2-2-2-2-2-2-2-2-2-2--|
D|------------------------------------|
A|------------------------------------|
D|------------------------------------|


  there's no place I can hide

   Guitar 1
   Guitar II Silent
e|------------------------------------|
B|--2-2-2-2-2-2-2-2-2-3-3-3-3-3-3-3-3-|
G|---2-2-2-2-2-2-2-2-2-2-2-2-2-2-2-2--|
D|------------------------------------|
A|------------------------------------|
D|------------------------------------|

  And your   down          time

   Guitar 1
   Guitar II silent
e|------------------------------------|
B|--2-2-2-2-2-2-2-2-2-3-3-3-3-3-3-3-3-|
G|---2-2-2-2-2-2-2-2-2-2-2-2-2-2-2-2--|
D|------------------------------------|
A|------------------------------------|
D|------------------------------------|

     Guitar II
e|------------------------------------------|
B|-----------2-2-2-2-2-2-2-2-3-3-3-3--------|
G|-----------2-2-2-2-2-2-2-2-2-2-2-2--------|
D|---0-0-0-0-0-0-0-0-0-0-0-0-0-0-0-0--------|
A|---0-0-0-0-0-0-0-0-0-0-0-0-0-0-0-0--------|
D|---0-0-0-0-0-0-0-0-0-0-0-0-0-0-0-0--------|

  Is any  thing          but right
e|------------------------------------|
B|--2-2-2-2-2-2-2-2-2-3-3-3-3-3-3-3-3-|
G|---2-2-2-2-2-2-2-2-2-2-2-2-2-2-2-2--|
D|------------------------------------|
A|------------------------------------|
D|------------------------------------|


      Guitar II
e|---------------------------2-2-2-2--------|
B|-----------2-2-2-2-2-2-2-2-3-3-3-3--------|
G|-----------2-2-2-2-2-2-2-2-2-2-2-2--------|
D|---0-0-0-0-0-0-0-0-0-0-0-0-0-0-0-0--------|
A|---0-0-0-0-0-0-0-0-0-0-0-0-0-0-0-0--------|
D|---0-0-0-0-0-0-0-0-0-0-0-0-0-0-0-0--------|



  When-the...       
    GUiTAR I Stabs these two chords now
    
e|----------------|
B|----------------|
G|--9-7-----------|
D|--7-5-----------|
A|--7-5-----------|
D|--7-5-----------|
    ^ ^		  
     		    

      WINDS rise...               This   storm   
  
e|------------------------------------|
B|--2-2-2-2-2-2-2-2-2-3-3-3-3-3-3-3-3-|
G|---2-2-2-2-2-2-2-2-2-2-2-2-2-2-2-2--|
D|------------------------------------|
A|------------------------------------|
D|------------------------------------|


       GUITAR II silent




  won't   subside
    Guitar I
e|------------------------------------|
B|--2-2-2-2-2-2-2-2-2-3-3-3-3-3-3-3-3-|
G|---2-2-2-2-2-2-2-2-2-2-2-2-2-2-2-2--|
D|------------------------------------|
A|------------------------------------|
D|------------------------------------|



  You'll be outside
e|------------------------------------|
B|--2-2-2-2-2-2-2-2-2-3-3-3-3-3-3-3-3-|
G|---2-2-2-2-2-2-2-2-2-2-2-2-2-2-2-2--|
D|------------------------------------|
A|------------------------------------|
D|------------------------------------|

Guitar II
e|------------------------------------------|
B|------------------------------------------|
G|---7-7-7-7-7-7-7-7-9-9-9-9-9-9-9-9--------|
D|---5-5-5-5-5-5-5-5-7-7-7-7-7-7-7-7--------|
A|---5-5-5-5-5-5-5-5-7-7-7-7-7-7-7-7--------|
D|---5-5-5-5-5-5-5-5-7-7-7-7-7-7-7-7--------|
         
  I'm in here                 and I'll guard 
  Guitar I
e|---------------\\\\\\\\\\pickslide--|
B|------------------------------------|
G|--Drums-----------------------------|
D|------------------------------------|
A|------------------------------------|
D|------------------------------------|
  Guitar II
e|------------------------------------------|
B|------------------------------------------|
G|---7-7-7-7-7-7-7-7-7-7-7-7-7-7-7-7/9-9-9-9|
D|---0-0-0-0-0-0-0-0-0-0-0-0-0-0-0-0/7-7-7-7|
A|---0-0-0-0-0-0-0-0-0-0-0-0-0-0-0-0/7-7-7-7|
D|---0-0-0-0-0-0-0-0-0-0-0-0-0-0-0-0/7-7-7-7|



SOLO:
     Guitar I
e|---0-2-3~---3~----2~---2-------0-2--------|
B|--------------------3----3----------------|
G|------------------------------------------|
D|------------------------------------------|
A|------------------------------------------|
D|------------------------------------------|
     GUitar II
e|------------------------------------------|
B|---3-3-3-3-3-3-3-3-2-2-2-2-2-2-2-2--------|
G|---2-2-2-2-2-2-2-2-2-2-2-2-2-2-2-2--------|
D|---0-0-0-0-0-0-0-0-0-0-0-0-0-0-0-0--------|
A|---0-0-0-0-0-0-0-0-0-0-0-0-0-0-0-0--------|
D|---0-0-0-0-0-0-0-0-0-0-0-0-0-0-0-0--------|


     Guitar I 
                     ^half      ^half
e|------3~---3~----2/---------2/-----0-2|
B|----------------------3-------3-------|
G|--------------------------------------|
D|--------------------------------------|
A|--------------------------------------|
D|--------------------------------------|
     Guitar II
e|------------------------------------------|
B|------------------------------------------|
G|---9-9-9-9-9-9-9-9-6-6-6-6-6-6-6-6--------|
D|---7-7-7-7-7-7-7-7-7-7-7-7-7-7-7-7--------|
A|---7-7-7-7-7-7-7-7-0-0-0-0-0-0-0-0--------|
D|---7-7-7-7-7-7-7-7-0-0-0-0-0-0-0-0--------|


      Guitar I 
e|------5----5-----3-2-3-2--------------|
B|---------------------------3/5----3---|
G|--------------------------------------|
D|--------------------------------------|
A|--------------------------------------|
D|--------------------------------------|


     Guitar II
e|------------------------------------------|
B|------------------------------------------|
G|---7-7-7-7-7-7-7-7-9-9-9-9-9-9-9-9--------|
D|---5-5-5-5-5-5-5-5-7-7-7-7-7-7-7-7--------|
A|---5-5-5-5-5-5-5-5-7-7-7-7-7-7-7-7--------|
D|---5-5-5-5-5-5-5-5-7-7-7-7-7-7-7-7--------|

      Guitar I 
e|------5---5---5----5---5--0--5----9--9-|
B|--------3---3---3----5---------5-------|
G|-----------------------------------6--6|
D|---------------------------------------|
A|---------------------------------------|
D|---------------------------------------|


     Guitar II
e|------------------------------------------|
B|------------------------------------------|
G|---7-7-7-7-7-7-7-7-7-7-7-7-7-7-7-7/9-9-9-9|
D|---0-0-0-0-0-0-0-0-0-0-0-0-0-0-0-0/7-7-7-7|
A|---0-0-0-0-0-0-0-0-0-0-0-0-0-0-0-0/7-7-7-7|
D|---0-0-0-0-0-0-0-0-0-0-0-0-0-0-0-0/7-7-7-7|

      Guitar I 

e|--10~--------------10^full--10^full--|
B|-------------------------------------|
G|7-----7-7---9h11---------------------|
D|-------------------------------------|
A|-------------------------------------|
D|-------------------------------------|

     Guitar II
e|------------------------------------------|
B|------------------------------------------|
G|---7-7-7-7-7-7-7-7-7-7-7-7-7-7-7-7/9-9-9-9|
D|---0-0-0-0-0-0-0-0-0-0-0-0-0-0-0-0/7-7-7-7|
A|---0-0-0-0-0-0-0-0-0-0-0-0-0-0-0-0/7-7-7-7|
D|---0-0-0-0-0-0-0-0-0-0-0-0-0-0-0-0/7-7-7-7|

                               Waiting....
       ^half bend and release to 10th fret
e|--12/-----\10~-----------------------|
B|-------------------------------------|
G|------------------------------(2)----|
D|------------------------------(0)----|
A|------------------------------(0)----|
D|------------------------------(0)----|


                WHEN I'M....
e|-------------------------------------|
B|-------------------------------------|
G|-(2)---------------------------------|
D|-(0)---------------------------------|
A|-(0)---------------------------------|
D|-(0)---------------------------------|

THIRD CHORUS(post solo):

     WAITING!                     I've
     
e|------------------------------------------|
B|------------------------------------------|
G|---9-9-9-9-9---9---6---------(6)----------|
D|---7-7-7-7-7---7---7---------(7)----------|
A|---7-7-7-7-7---7---0---------(0)----------|
D|---7-7-7-7-7---7---0---------(0)----------|

      been here be-  fore        And I don't
     A5/D            D5
e|------------------------------------------|
B|---2-2-2-2-2---2---3---------2-2-2--------|
G|---2-2-2-2-2---2---2---------2-2-2--------|
D|---2-2-2-2-2---2---0---------0-0-0--------|
A|---0-0-0-0-0---0---0---------0-0-0--------|
D|---0-0-0-0-0---0---0---------0-0-0--------|

      care where I'm going         so I'll be

                   
e|------------------------------------------|
B|------------------------------------------|
G|---7-7-7-7-7-7-7-7-7-7-7-7-7-7-7-7/9-9-9-9|
D|---0-0-0-0-0-0-0-0-0-0-0-0-0-0-0-0/7-7-7-7|
A|---0-0-0-0-0-0-0-0-0-0-0-0-0-0-0-0/7-7-7-7|
D|---0-0-0-0-0-0-0-0-0-0-0-0-0-0-0-0/7-7-7-7|

SECOND Chorus:

     Wait       -ing,          when I'm 
     
e|------------------------------------------|
B|---3-3-3-3-3---3---2---------2-2-2--------|
G|---2-2-2-2-2---2---2---------2-2-2--------|
D|---0-0-0-0-0---0---0---------0-0-0--------|
A|---0-0-0-0-0---0---0---------0-0-0--------|
D|---0-0-0-0-0---0---0---------0-0-0--------|




     wait       -ing        (DOn't You know?)

     					I'll
e|------------------------------------------|
B|------------------------------------------|
G|---9-9-9-9-9---9---6---------(6)----------|
D|---7-7-7-7-7---7---7---------(7)----------|
A|---7-7-7-7-7---7---0---------(0)----------|
D|---7-7-7-7-7---7---0---------(0)----------|


       Tell you once more
     
e|------------------------------------------|
B|------------------------------------------|
G|---7-7-7-7-7-7-7-7-9-9-9-9-9-9-9-9--------|
D|---5-5-5-5-5-5-5-5-7-7-7-7-7-7-7-7--------|
A|---5-5-5-5-5-5-5-5-7-7-7-7-7-7-7-7--------|
D|---5-5-5-5-5-5-5-5-7-7-7-7-7-7-7-7--------|



    
         That as     long as you're gone,  
                
e|----------------------------------|
B|----------------------------------|
G|---7-7-7-7-(7)---7-7-7-7-7/9-9-9-9|
D|---0-0-0-0-(0)---0-0-0-0-0/7-7-7-7|
A|---0-0-0-0-(0)---0-0-0-0-0/7-7-7-7|
D|---0-0-0-0-(0)---0-0-0-0-0/7-7-7-7|


 Then I'll stay!....



Guitar666\m/
e|------|
B|------|
G|-2----|
D|-0----|
A|-0----|
D|-0----|
   



Then I'll stay

    DSus    ASus      Dsus   Asus
e|-----------5---------------5-------|
B|--------3----3---------------3-----|
G|-------2---------2---------------2-|
D|------2------------------2---------|
A|---0------------------0------------|
D|-0------------------0--------------|   
  

Guitar666\m/
e|-------------------------------------|
B|-------------------------------------|
G|------------------------------(2)----|
D|------------------------------(0)----|
A|------------------------------(0)----|
D|------------------------------(0)----|
 
Then I'll stay
    DSus    ASus      Dsus   Asus
e|-----------5---------------5-------|
B|--------3----3---------------3-----|
G|-------2---------2---------------2-|
D|------2------------------2---------|
A|---0------------------0------------|
D|-0------------------0--------------|   

  
Guitar666\m/
e|-------------------------------------|
B|-------------------------------------|
G|------------------------------(2)----|
D|------------------------------(0)----|
A|------------------------------(0)----|
D|------------------------------(0)----|

Then I'll stay

    DSus    ASus      Dsus   Asus
e|-----------5---------------5-------|
B|--------3----3---------------3-----|
G|-------2---------2---------------2-|
D|------2------------------2---------|
A|---0------------------0------------|
D|-0------------------0--------------|   

ANd you'll Go

    DSus    ASus      Dsus   Asus
e|-----------5---------------5-------|
B|--------3----3---------------3-----|
G|-------2---------2---------------2-|
D|------2------------------2---------|
A|---0------------------0------------|
D|-0------------------0--------------|   
   



THen I'll Stay
    DSus    ASus      Dsus   Asus
e|-----------5---------------5-------|
B|--------3----3---------------3-----|
G|-------2---------2---------------2-|
D|------2------------------2---------|
A|---0------------------0------------|
D|-0------------------0--------------|  


                 STay 

    DSus    ASus      Dsus   Asus
e|-----------5---------------5-------|
B|--------3----3---------------3-----|
G|-------2---------2---------------2-|
D|------2------------------2---------|
A|---0------------------0------------|
D|-0------------------0--------------|   
  




    ^
|  /  Half or full bend

| /  slide up
| \  slide down
| h  hammer-on
| p  pull-off
| ~  vibrato
| +  harmonic
| x  Mute note
===============================================================
Suggest correction
Creating personal tab
Creating personal tab
You can edit any tab online and save it as your Personal.

You can edit, replace or remove any tab part or add personal notes – all changes will be seen only by you.

Personal tabs can be accessed anytime from any device, even offline.
Learn more »
Give kudos to tab author, rate the tab!
1 2 3 4 5
comments
print report bad tab
guest
You may want to rate the tab now too:
select rating
Wanna post a correction for this tab? Suggest correction