Oops, an error
Loading. Please wait.

It Ends Tonight bass

version 2
version 2

Whole song

15,995 views 9 this week
9 commentsread comments
1 2 3 4 5
x 15
add to favorites
×
Save as Personal and add changes to this tab that will be seen only by you. Learn more ›
×
You can save this tab as Personal to edit and correct it or add notes. All changes will be seen only by you. Learn more »
launch autoscroll
font size
0
reset
guitar tuner
edit
Autoscroll
slow
fast
+/-
esc
set tempo
stop
The All-American Rejects - It Ends Tonight

Bass Dropped D-Tuning (D-A-D-G)





Intro
G|-X-|
D|-X-|
A|-X-|
D|-X-|


Verse A
G|-X-|
D|-X-|
A|-X-|
D|-X-|


Pre-Chorus (00:32)
G|----------------|
D|----------------|
A|----3~----------|
D|-3~----3~-2~-0~-|


Chorus A
G|-------------|
D|-------------|
A|-3~----0~----|
D|----3~----5~-|


Verse B
G|-----------------------------------|
D|-----------------------------------|
A|-0x7----------5x6--3-5--7x5--5-3-2-|
D|------5--3x8-----------------------|

G|-------------------------------------|
D|-------------------------------------|
A|-0x7--1-3-------5x6--3-5--7x5--5-3-2-|
D|-----------3x8-----------------------|


Pre-Chorus
G|-----------------------------------------------|
D|---------------5-----5---5---------------------|
A|------5-5--3x8---3-3---3---3-3-------7x8--5x16-|
D|-3x14---------------------------3x8------------|


Chorus B
G|----------------------------|
D|----------------------------|
A|-3x6---------------0x8------|
D|------2-2--3x7--5-------5x8-|x2


Bridge
G|-----------------------------------------------------------------|------|
D|-----------------------------------------------------------------|------|
A|-0x8------------------00x4-0000--2x4-2222------------------5~----|-1-3~-|
D|------5x8--4x8--3x8------------------------4x8--3x8--2~-3~----5~-|------|


Break!
G|-X-|
D|-X-|
A|-X-|
D|-X-|


Final Chorus
G|----------------------------------|-------------------------------------|
D|----------------------------------|-------------------------------------|
A|-3x6---------------0x8------------|-3x6---------------0x8-------7-5-3-2-|
D|------2-2--3x7--5-------5x4-/17x4-|------2-2--3x7--5-------5x4----------|

G|----------------------------------|-------------------------------------|
D|----------------------------------|---------------------------------7-5-|
A|-3x6---------------0x8------------|-3x6---------------0x8-------7-5-----|
D|------2-2--3x7--5-------5x4-/17x4-|------2-2--3x7--5-------5x4----------|

G|-------------------------------------|
D|-------------------------------------|
A|-3x6---------------0x8-------7-5-3-2-|
D|------2-2--3x7--5-------5x4----------|


End on
G|----|
D|----|
A|-3~-|
D|----|


Official Website of "The All-American Rejects"
http://www.allamericanrejects.com/

            
            
Suggest correction
Creating personal tab
Creating personal tab
You can edit any tab online and save it as your Personal.

You can edit, replace or remove any tab part or add personal notes – all changes will be seen only by you.

Personal tabs can be accessed anytime from any device, even offline.
Learn more »
comments
print report bad tab
9 comments total. Showing first comments. show 1 bad comment
0 reply
PunkKid_19 76 Nov 15, 2007 10:48 AM

perfect except just before the break instead of
----|-----|
----|-----|
----|-1-3-|
-5--|-----|
i think
its
-------|
-------|
-------|
-5/10--|

0 reply
china_dweller 275 Jan 04, 2009 03:55 PM

nice man!

guest
Wanna post a correction for this tab? Suggest correction