Oops, an error
Loading. Please wait.

Move Along bass

version 1
version 1
26,406 views 1 this week
25 commentsread comments
1 2 3 4 5
x 15
add to favorites
×
Save as Personal and add changes to this tab that will be seen only by you. Learn more ›
×
You can save this tab as Personal to edit and correct it or add notes. All changes will be seen only by you. Learn more »
launch autoscroll
font size
0
reset
guitar tuner
edit
Autoscroll
slow
fast
+/-
esc
set tempo
stop
Difficulty
MOVE ALONG (Bassline)
As recorded by All-American Rejects
(From the 2005 Album MOVE ALONG)


Transcribed by ODC

 Words and Music by All-American Rejects
Arranged by All-American Rejects
 

Gtr I (E A D G) - 'Bass'
Gtr II (E A D G) - 'Bass 2'
Gtr III (E A D G) - 'Bass 3'


 Intro
  Fast Rock Q=120(8=s8)
 4/4
  Gtr I
  Wx4
|--------|
|--------|
|--------|
|--------|


 4/4
  Gtr I
  S S S S S S S S S S S S S S S S   S S S S S S S S S S S S S S S S
|---------------------------------|---------------------------------|
|---------------------------------|---------------------------------|
|-6-6---6-6---6-6---6-6---6-6-6-6-|---------------------------------|
|---------------------------------|-6-6---6-6---6-6---6-6---6-6-6-6-|


  S S S S S S S S S S S S S S S S   S S S S S S S S S S S S S S S S
|---------------------------------|----------------------------------|
|---------------------------------|----------------------------------|
|---------------------------------|----------------------------------|
|-8-8---8-8---8-8---8-8---8-8-8-8-|-4-4---4-4---4-4---4-4---4-4-4-4--|


   Verse 1
    S S S S S S S S S S S S S S S S   S S S S S S S S S S S S S S S S
||----------------------------------|---------------------------------|
||o---------------------------------|---------------------------------|
||o-6-6---6-6---6-6---6-6---6-6-6-6-|---------------------------------|
||----------------------------------|-6-6---6-6---6-6---6-6---6-6-6-6-|


  S S S S S S S S S S S S S S S S   S S S S S S S S S S S S S S S S
|---------------------------------|-----------------------------------||
|---------------------------------|----------------------------------o||
|---------------------------------|----------------------------------o||
|-8-8---8-8---8-8---8-8---8-8-8-8-|-4-4---4-4---4-4---4-4---4-4-4-4---||


 Pre-Chorus
  H.      Q     W          H.      Q    W
|-------------|----------|------------|------|
|-------------|----------|------------|------|
|-6-------6\--|-1--------|------------|------|
|-------------|----------|-8-------8S=|=4----|


   Chorus
    S S S S S S S S S S S S S S S S   S S S S S S S S S S S S S S S S
||----------------------------------|---------------------------------|
||o---------------------------------|---------------------------------|
||o-6-6-6-6-6-6-6-6-6-6-6-6-6-6-6-6-|---------------------------------|
||----------------------------------|-6-6-6-6-6-6-6-6-6-6-6-6-6-6-6-6-|


  S S S S S S S S S S S S S S S S   S S S S S S S S S S S S S S S S
|---------------------------------|-----------------------------------||
|---------------------------------|----------------------------------o||
|---------------------------------|----------------------------------o||
|-8-8-8-8-8-8-8-8-8-8-8-8-8-8-8-8-|-4-4-4-4-4-4-4-4-4-4-4-4-4-4-4-4---||


 Interlude
  S S S S S S S S S S S S S S S S   S S S S S S S S S S S S S S S S
|---------------------------------|----------------------------------|
|---------------------------------|----------------------------------|
|-6-6---6-6---6-6---6-6---6-6-6-6-|----------------------------------|
|---------------------------------|-6-6---6-6---6-6---6-6---6-6-6-6--|


  S S S S S S S S S S S S S S S S   S S S S S S S S S S S S S S S S
|---------------------------------|----------------------------------|
|---------------------------------|----------------------------------|
|---------------------------------|----------------------------------|
|-8-8---8-8---8-8---8-8---8-8-8-8-|-4-4---4-4---4-4---4-4---4-4-4-4--|


 Verse 2
  S S S S S H    S S S   S S S S S H    S S S   Q  Q  Q  Q
|----------------------|----------------------|-------------|
|----------------------|----------------------|-------------|
|-6-6-6-6-6------------|----------------------|-------------|
|----------------------|-6-6-6-6-6------------|-8--8--8--8--|


  Q  Q  Q  Q    Q  Q  Q  Q
|-------------|-------------|
|-------------|-------------|
|-------------|-6--6--6--6--|
|-4--4--4--4--|-------------|


  Q  Q  Q  Q    Q  Q  Q  Q
|-------------|-------------|
|-------------|-------------|
|-------------|-------------|
|-6--6--6--6--|-8--8--8--8--|


  Q  Q  Q  Q
|-------------|
|-------------|
|-------------|
|-4--4--4--4--|


 Pre-Chorus
  H.      Q     W          H.      Q    W
|-------------|----------|------------|------|
|-------------|----------|------------|------|
|-6-------6\--|-1--------|------------|------|
|-------------|----------|-8-------8S=|=4----|


   Chorus
    S S S S S S S S S S S S S S S S   S S S S S S S S S S S S S S S S
||----------------------------------|---------------------------------|
||o---------------------------------|---------------------------------|
||o-6-6-6-6-6-6-6-6-6-6-6-6-6-6-6-6-|---------------------------------|
||----------------------------------|-6-6-6-6-6-6-6-6-6-6-6-6-6-6-6-6-|


  S S S S S S S S S S S S S S S S   S S S S S S S S S S S S S S S S
|---------------------------------|-----------------------------------||
|---------------------------------|----------------------------------o||
|---------------------------------|----------------------------------o||
|-8-8-8-8-8-8-8-8-8-8-8-8-8-8-8-8-|-4-4-4-4-4-4-4-4-4-4-4-4-4-4-4-4---||


   Interlude 2
    S S S S S S S S S S S S S S S S   S S S S S S S S S S S S S S S S
||----------------------------------|---------------------------------|
||o---------------------------------|---------------------------------|
||o-6-6---6-6---6-6---6-6---6-6-6-6-|---------------------------------|
||----------------------------------|-6-6---6-6---6-6---6-6---6-6-6-6-|


  S S S S S S S S S S S S S S S S   S S S S S S S S S S S S S S S S
|---------------------------------|-----------------------------------||
|---------------------------------|----------------------------------o||
|---------------------------------|----------------------------------o||
|-8-8---8-8---8-8---8-8---8-8-8-8-|-4-4---4-4---4-4---4-4---4-4-4-4---||


 Breakdown
  W          +W           W          +W
|----------|------------|----------|--------|
|----------|------------|----------|--------|
|----------|------------|----------|--------|
|-4--------|-(4)--------|-4--------|-(4)----|


 Bridge
  Wx4
|--------|
|--------|
|--------|
|--------|


  Wx4
|--------|
|--------|
|--------|
|--------|


   Chorus
    Gtr I
    S  S S S S S S S S S S S S  S S S   S S S S S S S S S S S S S S S S
||------------------------------------|---------------------------------|
||o-----------------------------------|---------------------------------|
||o-6--6-6-6-6-6-6-6-6-6-6-6-6--6-6-6-|---------------------------------|
||------------------------------------|-6-6-6-6-6-6-6-6-6-6-6-6-6-6-6-6-|
|
|   Gtr II
|   H.                       Q          W
||------------------------------------|---------------------------------|
||o-----------------------------------|---------------------------------|
||o-6------------------------6\-------|-1-------------------------------|
||------------------------------------|---------------------------------|


  S  S S S S S S S S S S S S S S S   S S S S S S S S S S S S S S S S
|----------------------------------|-----------------------------------||
|----------------------------------|----------------------------------o||
|----------------------------------|----------------------------------o||
|-8--8-8-8-8-8-8-8-8-8-8-8-8-8-8-8-|-4-4-4-4-4-4-4-4-4-4-4-4-4-4-4-4---||
|
| H.                       Q         W
|----------------------------------|-----------------------------------||
|----------------------------------|----------------------------------o||
|----------------------------------|----------------------------------o||
|-8------------------------8S======|=4---------------------------------||


   Out-Chorus
    Gtr I
    S S S S S S S S S S S S S S S S   S S S S S S S S S S S S S S S S
||----------------------------------|---------------------------------|
||o---------------------------------|---------------------------------|
||o-6-6---6-6---6-6---6-6---6-6-6-6-|---------------------------------|
||----------------------------------|-6-6---6-6---6-6---6-6---6-6-6-6-|


  Gtr I
  S S S S S S S S S S S S S S S S   S S S S S S S S S S S S S S S S
|---------------------------------|-----------------------------------||
|---------------------------------|----------------------------------o||
|---------------------------------|----------------------------------o||
|-8-8---8-8---8-8---8-8---8-8-8-8-|-4-4---4-4---4-4---4-4---4-4-4-4---||


 Outro
  Gtr I
  W             +W           +W              +W
|-------------|------------|---------------|--------*|
|-------------|------------|---------------|--------*|
|-------------|------------|---------------|--------*|
|-4-----------|-(4)--------|-(4)-----------|-(4)----*|
|
| Gtr II
| H.      Q      W            H.       Q      W
|-------------|------------|---------------|--------*|
|-------------|------------|---------------|--------*|
|-6-------6\--|--1---------|---------------|--------*|
|-------------|------------|--8--------8S==|==4-----*|
|
| Gtr III
| H.      Q      W            H.       Q      W
|-------------|------------|---------------|--------*|
|-------------|------------|---------------|--------*|
|-6-------6\--|--8---------|-10-------10\--|--6-----*|
|-------------|------------|---------------|--------*|




--------------------------------------------------------------------------------


Duration Legend
---------------
W - whole; H - half; Q - quarter; E - 8th; S - 16th; T - 32nd; X - 64th; a - acciaccatura
+ - note tied to previous; . - note dotted; .. - note double dotted
Uncapitalized letters represent notes that are staccato (1/2 duration)
Irregular groupings are notated above the duration line
Duration letters will always appear directly above the note/fret number it represents the
duration for.  Duration letters with no fret number below them represent rests.  Multi-
bar rests are notated in the form Wxn, where n is the number of bars to rest for.  Low
melody durations appear below the staff

Tablature Legend
----------------
 h   - hammer-on
 p   - pull-off
 b   - bend
 pb  - pre-bend
 r   - bend release (if no number after the r, then release immediately)
 /\  - slide into or out of (from/to "nowhere")
 s   - legato slide
 S   - shift slide
 - natural harmonic
[n]  - artificial harmonic
n(n) - tapped harmonic
 ~   - vibrato
 tr  - trill
 T   - tap
 TP  - trem. picking
 PM  - palm muting
\n/  - tremolo bar dip; n = amount to dip
 \n  - tremolo bar down
 n/  - tremolo bar up
/n\  - tremolo bar inverted dip
 =   - hold bend; also acts as connecting device for hammers/pulls
 <> - volume swell (louder/softer)
 x   - on rhythm slash represents muted slash
 o   - on rhythm slash represents single note slash

Misc Legend
-----------
 |  - bar
||  - double bar
||o - repeat start
o|| - repeat end
*|  - double bar (ending)
 :  - bar (freetime)
 $  - Segno
 &  - Coda
Tempo markers -  = BPM(8/16=s8/s16), where s8 = swing 8ths, s16 = swing 16ths


            
            
Suggest correction
Creating personal tab
Creating personal tab
You can edit any tab online and save it as your Personal.

You can edit, replace or remove any tab part or add personal notes – all changes will be seen only by you.

Personal tabs can be accessed anytime from any device, even offline.
Learn more »
comments
print report bad tab
25 comments total. Showing first comments.
-1 reply
ODC 72 Dec 22, 2005 05:28 AM

I tabbed this out by ear and i think im very satisfied with my work here

+1 reply
SaintJimmy105 341 Jan 25, 2006 02:39 PM

I really hope you weren't shallow enough to give yourself a 5 star. Cause honestly its only worth a 4. It's not perfect.

-2 reply
ODC 72 Jan 26, 2006 02:11 PM

No i didnt vote for my own some fruit did that

guest
Wanna post a correction for this tab? Suggest correction