Oops, an error
Loading. Please wait.

Move Along bass

version 3
version 3
32,331 views 15 this week
5 commentsread comments
1 2 3 4 5
x 15
add to favorites
×
Save as Personal and add changes to this tab that will be seen only by you. Learn more ›
×
You can save this tab as Personal to edit and correct it or add notes. All changes will be seen only by you. Learn more »
launch autoscroll
font size
0
reset
guitar tuner
edit
Autoscroll
slow
fast
+/-
esc
set tempo
stop
Okay, the other versions of this song sucks, i'm sorry! This is the closest i got. I Was
this song from Rock Band lol. So the fill-ins especially were hard to get. I will be
a video supplement of this song on youtube my username is 7bmwm3gtr so that people can 
understand how to play this song.

Enjoy and Rate/ Comment! Thanks.

Intro:
Gb:--------------------------------------|
Db:--------------------------------------|
Ab:--------------------------------------|
Eb:-00-000-00-000-00-000-(10)-(12)(12)---|

Gb:------------------------------------------------------------------------|
Db:--------------------------222111---------------------------------111222-|
Ab:-----------------22-22-22---------2-44-44-44-44-444-2-00-00-00-00-------|
Eb:-00-00-00-00-000--------------------------------------------------------|


Verse: Repeat 2x
Gb:--------------------------------------------------------------------------|
Db:--------------------------------------------------------------------------|
Ab:--------------------------------6666-44-44-44-44-444-44-44-44-44-444-6666-|
Eb:-00-00-00-00-000-44-44-44-44-444------------------------------------------|


Pre Chorus
Gb:------------------------|
Db:------------------------|
Ab:------------------------|
Eb:-4----5\0---5-4----5\0--|


Chorus:
Gb:----------------------------------------|
Db:----------1-2------------------------11-|
Ab:-44444444-------------2-222-22-0-000----|
Eb:-------------00000000-------------------|

Gb:---------------------------------------------|
Db:------------1-2------------------------------|
Ab:22-44444444-------------2-222-22-0-00-00-000-|
Eb:---------------00000000----------------------|


Post Chorus:
Gb:----------------------------------------------------------|
Db:------------------------------------------------------1-2-|
Ab:-----------------22-22-22-22-222-44-444-22-222-00-000-----|
Eb:-00-00-00-00-000------------------------------------------|


Verse 2:
Gb:--------------------------------------------------------|
Db:--------------------------------------------------------|
Ab:--------------(12)/22-22-22-22-222-22-22-22-22-222-4444-|
Eb:-00000--44444-------------------------------------------|

Gb:--------------------------------------------------------------------------|
Db:--------------------------------------------------------------------------|
Ab:--------------------------------6666-44-44-44-44-444-44-44-44-44-444-6666-|
Eb:-00-00-00-00-000-44-44-44-44-444------------------------------------------|


Pre Chorus
Gb:-----------------------4-4-|
Db:-----------------------2-2-|
Ab:---------------------------|
Eb:-4----5\0---5-4----5\0-----|


Chorus:
Gb:----------------------------------------|
Db:----------1-2------------------------11-|
Ab:-44444444-------------2-222-22-0-000----|
Eb:-------------00000000-------------------|

Gb:---------------------------------------------|
Db:------------1-2------------------------------|
Ab:22-44444444-------------2-222-22-0-00-00-000-|
Eb:---------------00000000----------------------|


Breakdown:
Gb:------------------------------------------------------|
Db:------------------------------------------------------|
Ab:-----------------22-22-22-22-222-44-444-22-222-00-000-|
Eb:-00-00-00-00-000--------------------------------------|

Gb:------------------------------------------------------|
Db:------------------------------------------------------|
Ab:-----------------22-22-22-22-222-44-444-22-222-00-000-|
Eb:-00-00-00-00-000--------------------------------------|

Gb:---------------------4~---4~----------|
Db:---------------------2~---2~--2222422-|
Ab:--------------------------------------|
Eb:-0~--------0~-------------------------|

[[Piano and Singing]]


Chorus: Reapeat 2x
Gb:----------------------------------------|
Db:----------1-2------------------------11-|
Ab:-44444444-------------2-222-22-0-000----|
Eb:-------------00000000-------------------|

Gb:---------------------------------------------|
Db:------------1-2------------------------------|
Ab:22-44444444-------------2-222-22-0-00-00-000-|
Eb:---------------00000000----------------------|

Keep Playing Until Song Fades:
Gb:----------------------------------------------------------|
Db:------------------------------------------------------1-2-|
Ab:-----------------22-22-22-22-222-44-444-22-222-00-000-----|
Eb:-00-00-00-00-000------------------------------------------|


Thank You!

            
            
Suggest correction
Creating personal tab
Creating personal tab
You can edit any tab online and save it as your Personal.

You can edit, replace or remove any tab part or add personal notes – all changes will be seen only by you.

Personal tabs can be accessed anytime from any device, even offline.
Learn more »
comments
print report bad tab
5 comments total. Showing first comments.
0 reply
iq01 90 Aug 04, 2008 10:57 AM

awesome tab.
and yes the other ones suck

0 reply
I-GuitarBassist 10 Nov 08, 2008 06:10 PM

Nice tab man~! I especially like the video so extra props for that. I'd say 10 out of 5~!

0 reply
willmclnz 52 Mar 31, 2009 12:12 AM

This tab is pure gold

guest
You may want to rate the tab now too:
select rating
Wanna post a correction for this tab? Suggest correction