Oops, an error
Loading. Please wait.

Move Along tab

version 4
version 4
39,144 views 9 this week
8 commentsread comments
1 2 3 4 5
x 14
add to favorites
×
Save as Personal and add changes to this tab that will be seen only by you. Learn more ›
×
You can save this tab as Personal to edit and correct it or add notes. All changes will be seen only by you. Learn more »
launch autoscroll
font size
0
reset
how to read this tab
guitar tuner
edit
Autoscroll
slow
fast
+/-
esc
set tempo
stop
Author
Difficulty
I'm warning you, this has a LOT of layers and harmonies, and I tried to keep it from getting too messy.
Intro
Gtr 1 (dist)
e|----------------------------------------------------------|
B|-9-9--9-9--9-9--9-9--9-9-9-9--7-7--7-7--7-7--7-7--7-7-7-7-|
G|-9-9--9-9--9-9--9-9--9-9-9-9--8-8--8-8--8-8--8-8--8-8-8-8-|
D|-9-9--9-9--9-9--9-9--9-9-9-9--9-9--9-9--9-9--9-9--9-9-9-9-|
A|----------------------------------------------------------|
E|----------------------------------------------------------|
Gtr 2 (clean)
e|----------------------------------------------------------|
B|----------------------------------------------------------|
G|----------------------------------------------------------|
D|-6-6--6-6--6-6--6-6--6-6-6-6--9-9--9-9--9-9--9-9--9-9-9-9-|
A|-7-7--7-7--7-7--7-7--7-7-7-7--9-9--9-9--9-9--9-9--9-9-9-9-|
E|----------------------------------------------------------|

Gtr 1
----------------------------------------------------------------------------------|
--9--9---9--9---9--9---9--9---9--9--9--9--10-10--10-10--10-10--10-10--10-10-10-10-|
--9--9---9--9---9--9---9--9---9--9--9--9---9--9---9--9---9--9---9--9---9--9--9--9-|
-11-11--11-11--11-11--11-11--11-11-11-11--11-11--11-11--11-11--11-11--11-11-11-11-|
----------------------------------------------------------------------------------|
----------------------------------------------------------------------------------|
Gtr 2
----------------------------------------------------------------------------------|
----------------------------------------------------------------------------------|
----------------------------------------------------------------------------------|
--9--9---9--9---9--9---9--9---9--9--9--9---7--7---7--7---7--7---7--7---7--7--7--7-|
--7--7---7--7---7--7---7--7---7--7--7--7---7--7---7--7---7--7---7--7---7--7--7--7-|
----------------------------------------------------------------------------------|

Verse (x2)
Gtr 1 (dist)
e|----------------------------------------------------------|
B|-9-9--9-9--9-9--9-9--9-9-9-9--4-4--4-4--4-4--4-4--4-4-4-4-|
G|-9-9--9-9--9-9--9-9--9-9-9-9--4-4--4-4--4-4--4-4--4-4-4-4-|
D|-9-9--9-9--9-9--9-9--9-9-9-9--6-6--6-6--6-6--6-6--6-6-6-6-|
A|----------------------------------------------------------|
E|----------------------------------------------------------|
Gtr 2 (clean)
e|----------------------------------------------------------|
B|----------------------------------------------------------|
G|----------------------------------------------------------|
D|----------------------------------------------------------|
A|-7-7--7-7--7-7--7-7--7-7-7-7--6-6--6-6--6-6--6-6--6-6-6-6-|
E|----------------------------------------------------------|

Gtr 1
----------------------------------------------------------|
-5-5--5-5--5-5--5-5--4-4-4-4--5-5--5-5--5-5--5-5--4-4-4-4-|
-6-6--6-6--6-6--6-6--4-4-4-4--6-6--6-6--6-6--6-6--4-4-4-4-|
-6-6--6-6--6-6--6-6--4-4-4-4--6-6--6-6--6-6--6-6--4-4-4-4-|
----------------------------------------------------------|
----------------------------------------------------------|
Gtr 2
----------------------------------------------------------|
----------------------------------------------------------|
----------------------------------------------------------|
----------------------------------------------------------|
-4-4--4-4--4-4--4-4--2-2-2-2--4-4--4-4--4-4--4-4--6-6-6-6-|
----------------------------------------------------------|

Pre-Chorus
"Hands are shaking cold; these hands are meant to hold.  Speak to me!"

Chorus 1
Gtr 1 (dist)
e|------------------------------------------------------------------|
B|------------------------------------------------------------------|
G|-6---6---6--6---6---6---6-----6-----------------------------------|
D|-6---6---6--6---6---6---6-----6-----6---6---6--6---6---6--6---6---|
A|-4---4---4--4---4---4---4-----4-----7---7---7--7---7---7--7---7---|
E|------------------------------------0---0---0--0---0---0--0---0---|
Gtr 2 (dist)
e|------------------------------------------------------------------|
B|------------------------------------------------------------------|
G|-9-9-9-9-9--9-9-9-9-9--11-11-11-11--9-9-9-9-9--9-9-9-9-9--9-9-9-9-|
D|-x-x-x-x-x--x-x-x-x-x---x--x--x--x--x-x-x-x-x--x-x-x-x-x--x-x-x-x-|
A|-7-7-7-7-7--7-7-7-7-7---9--9--9--9--7-7-7-7-7--7-7-7-7-7--7-7-7-7-|
E|------------------------------------------------------------------|

Gtr 1
--------------------------------------------------------------|
--------------------------------------------------------------|
--------------------------------------------------------------|
-4---4---4--4---4---4--4---4----2---2---2--2---2---2--2---2---|
-6---6---6--6---6---6--6---6----4---4---4--4---4---4--4---4---|
-7---7---7--7---7---7--7---7----5---5---5--5---5---5--5---5---|
Gtr 2
--------------------------------------------------------------|
--------------------------------------------------------------|
-8-8-8-8-8--8-8-8-8-8--8-8-8-8--6-6-6-6-6--6-6-6-6-6--8-8-8-8-|
-x-x-x-x-x--x-x-x-x-x--x-x-x-x--x-x-x-x-x--x-x-x-x-x--x-x-x-x-|
-6-6-6-6-6--6-6-6-6-6--6-6-6-6--4-4-4-4-4--4-4-4-4-4--6-6-6-6-|
--------------------------------------------------------------|

Gtr 1
--------------------------------------------------------------------------------|
--------------------------------------------------------------------------------|
-6---6---6--6---6---6---6-----6-------------------------------------------------|
-6---6---6--6---6---6---6-----6------6-----6-----6---6-----6-----6---6-----6----|
-4---4---4--4---4---4---4-----4------7-----7-----7---7-----7-----7---7-----7----|
-------------------------------------0-----0-----0---0-----0-----0---0-----0----|
Gtr 2
--------------------------------------------------------------------------------|
--------------------------------------------------------------------------------|
-9-9-9-9-9--9-9-9-9-9--11-11-11-11--13-13-13-13-13--13-13-13-13-13--13-13-13-13-|
-x-x-x-x-x--x-x-x-x-x---x--x--x--x---x--x--x--x--x---x--x--x--x--x---x--x--x--x-|
-7-7-7-7-7--7-7-7-7-7---9--9--9--9--11-11-11-11-11--11-11-11-11-11--11-11-11-11-|
--------------------------------------------------------------------------------|

Gtr 1
----------------------------------------------------------------------------|
----------------------------------------------------------------------------|
----------------------------------------------------------------------------|
--4-----4-----4---4-----4-----4---4-----4-----2---2---2--2---2---2--2---2---|
--6-----6-----6---6-----6-----6---6-----6-----4---4---4--4---4---4--4---4---|
--7-----7-----7---7-----7-----7---7-----7-----5---5---5--5---5---5--5---5---|
Gtr 2
----------------------------------------------------------------------------|
----------------------------------------------------------------------------|
-11-11-11-11-11--11-11-11-11-11--11-11-11-11--9-9-9-9-9--9-9-9-9-9--9-9-9-9-|
--x--x--x--x--x---x--x--x--x--x---x--x--x--x--x-x-x-x-x--x-x-x-x-x--x-x-x-x-|
--9--9--9--9--9---9--9--9--9--9---9--9--9--9--7-7-7-7-7--7-7-7-7-7--7-7-7-7-|
----------------------------------------------------------------------------|

Post-Chorus 1 - Same as Intro

Verse 2
Gtr 1 (dist)
e|--------------------------------------------------------------------------------|
B|-5-5-5-5-5--4-4-4-4-4--5-5--5-5--5-5--5-5--4-4-4-4--5-5--5-5--5-5--5-5--4-4-4-4-|
G|-4-4-4-4-4--4-4-4-4-4--6-6--6-6--6-6--6-6--4-4-4-4--6-6--6-6--6-6--6-6--4-4-4-4-|
D|-6-6-6-6-6--6-6-6-6-6--6-6--6-6--6-6--6-6--4-4-4-4--6-6--6-6--6-6--6-6--4-4-4-4-|
A|--------------------------------------------------------------------------------|
E|--------------------------------------------------------------------------------|
Gtr 2 (clean)
e|--------------------------------------------------------------------------------|
B|--------------------------------------------------------------------------------|
G|--------------------------------------------------------------------------------|
D|-2-2-2-2-2--6-6-6-6-6-----------------------------------------------------------|
A|-2-2-2-2-2--6-6-6-6-6--4-4--4-4--4-4--4-4--2-2-2-2--4-4--4-4--4-4--4-4--6-6-6-6-|
E|-0-0-0-0-0--4-4-4-4-4-----------------------------------------------------------|
Gtr 3 (dist)
e|---------------------------------------------------------------------------------|
B|-5-5-5-5-5--4-4-4-4-4--5-----5------5------4--------5-----5------5------4--------|
G|-4-4-4-4-4--4-4-4-4-4----6------6------6-----6-4-6----6------6------6-----6-4-6--|
D|-6-6-6-6-6--6-6-6-6-6------6------6------6--------------6------6------6----------|
A|---------------------------------------------------------------------------------|
E|---------------------------------------------------------------------------------|
pm            |--------------------------------------------------------------------|

Gtr 1
------------------------------------------------------------|
---9-9--9-9--9-9--9-9--9-9-9-9--4-4--4-4--4-4--4-4--4-4-4-4-|
---9-9--9-9--9-9--9-9--9-9-9-9--4-4--4-4--4-4--4-4--4-4-4-4-|
---9-9--9-9--9-9--9-9--9-9-9-9--6-6--6-6--6-6--6-6--6-6-6-6-|
------------------------------------------------------------|
------------------------------------------------------------|
Gtr 2
------------------------------------------------------------|
------------------------------------------------------------|
------------------------------------------------------------|
------------------------------------------------------------|
---7-7--7-7--7-7--7-7--7-7-7-7--6-6--6-6--6-6--6-6--6-6-6-6-|
------------------------------------------------------------|
Gtr 3
-------------------------------------------------------------|
---5-----5------5------5--------4-----4------4------4--------|
-----4------4------4-----4---4----4------4------4-----4---4--|
-------6------6------6-----6--------6------6------6-----6----|
-------------------------------------------------------------|
-------------------------------------------------------------|
pm|----------------------------------------------------------|

Gtr 1
------------------------------------------------------------|
---5-5--5-5--5-5--5-5--4-4-4-4--5-5--5-5--5-5--5-5--4-4-4-4-|
---6-6--6-6--6-6--6-6--4-4-4-4--6-6--6-6--6-6--6-6--4-4-4-4-|
---6-6--6-6--6-6--6-6--4-4-4-4--6-6--6-6--6-6--6-6--4-4-4-4-|
------------------------------------------------------------|
------------------------------------------------------------|
Gtr 2
------------------------------------------------------------|
------------------------------------------------------------|
------------------------------------------------------------|
------------------------------------------------------------|
---4-4--4-4--4-4--4-4--2-2-2-2--4-4--4-4--4-4--4-4--6-6-6-6-|
------------------------------------------------------------|
Gtr 3
--------------------------------------------------------------|
---5-----5------5------4--------5-----5------5------4---------|
-----6------6------6-----6-4-6----6------6------6-----6-4-6---|
-------6------6------6--------------6------6------6-----------|
--------------------------------------------------------------|
--------------------------------------------------------------|
pm|-----------------------------------------------------------|

Pre-Chorus
Gtr 1 (dist)
e|---------------------------------------------12---------------------|
B|---------------------------------------12-------12------------------|
G|---------------------------------13h14----14-------14p13------9--9\-|
D|---------------------------------------------------------14:--9--9\-|
A|--------------------------------------------------------------7--7\-|
E|--------------------------------------------------------------------|
Gtr 2 (clean)
e|-17-17-17-17-17-17-17-17-17-16:-------------------------------------|
B|--------------------------------------------------------------------|
G|--------------------------------------------------------------------|
D|--------------------------------------------------------------------|
A|--------------------------------------------------------------------|
E|--------------------------------------------------------------------|

Chorus 2
Gtr 1 (dist)
e|------------------------------------------------------------------|
B|------------------------------------------------------------------|
G|-6---6---6--6---6---6---6-----6-----------------------------------|
D|-6---6---6--6---6---6---6-----6-----6---6---6--6---6---6--6---6---|
A|-4---4---4--4---4---4---4-----4-----7---7---7--7---7---7--7---7---|
E|------------------------------------0---0---0--0---0---0--0---0---|
Gtr 2 (dist)
e|------------------------------------------------------------------|
B|------------------------------------------------------------------|
G|-9-9-9-9-9--9-9-9-9-9--11-11-11-11--9-9-9-9-9--9-9-9-9-9--9-9-9-9-|
D|-x-x-x-x-x--x-x-x-x-x---x--x--x--x--x-x-x-x-x--x-x-x-x-x--x-x-x-x-|
A|-7-7-7-7-7--7-7-7-7-7---9--9--9--9--7-7-7-7-7--7-7-7-7-7--7-7-7-7-|
E|------------------------------------------------------------------|

Gtr 1
--------------------------------------------------------------|
--------------------------------------------------------------|
--------------------------------------------------------------|
-4---4---4--4---4---4--4---4----2---2---2--2---2---2--2---2---|
-6---6---6--6---6---6--6---6----4---4---4--4---4---4--4---4---|
-7---7---7--7---7---7--7---7----5---5---5--5---5---5--5---5---|
Gtr 2
--------------------------------------------------------------|
--------------------------------------------------------------|
-8-8-8-8-8--8-8-8-8-8--8-8-8-8--6-6-6-6-6--6-6-6-6-6--8-8-8-8-|
-x-x-x-x-x--x-x-x-x-x--x-x-x-x--x-x-x-x-x--x-x-x-x-x--x-x-x-x-|
-6-6-6-6-6--6-6-6-6-6--6-6-6-6--4-4-4-4-4--4-4-4-4-4--6-6-6-6-|
--------------------------------------------------------------|

Gtr 1
--------------------------------------------------------------------------------|
--------------------------------------------------------------------------------|
-6---6---6--6---6---6---6-----6-------------------------------------------------|
-6---6---6--6---6---6---6-----6------6-----6-----6---6-----6-----6---6-----6----|
-4---4---4--4---4---4---4-----4------7-----7-----7---7-----7-----7---7-----7----|
-------------------------------------0-----0-----0---0-----0-----0---0-----0----|
Gtr 2
--------------------------------------------------------------------------------|
--------------------------------------------------------------------------------|
-9-9-9-9-9--9-9-9-9-9--11-11-11-11--13-13-13-13-13--13-13-13-13-13--13-13-13-13-|
-x-x-x-x-x--x-x-x-x-x---x--x--x--x---x--x--x--x--x---x--x--x--x--x---x--x--x--x-|
-7-7-7-7-7--7-7-7-7-7---9--9--9--9--11-11-11-11-11--11-11-11-11-11--11-11-11-11-|
--------------------------------------------------------------------------------|

Gtr 1
----------------------------------------------------------------------------------------------|
----------------------------------------------------------------------------------------------|
----------------------------------------------------------------------------------------------|
--4-----4-----4---4-----4-----4---4-----4-----2------2-----2-----2-----2-----2-----2-----2----|
--6-----6-----6---6-----6-----6---6-----6-----4------4-----4-----4-----4-----4-----4-----4----|
--7-----7-----7---7-----7-----7---7-----7-----5------5-----5-----5-----5-----5-----5-----5----|
Gtr 2
----------------------------------------------------------------------------------------------|
----------------------------------------------------------------------------------------------|
-11-11-11-11-11--11-11-11-11-11--11-11-11-11--14-14-14-14-14-14-14-14-14-14-14-14-14-14-14-14-|
--x--x--x--x--x---x--x--x--x--x---x--x--x--x---x--x--x--x--x--x--x--x--x--x--x--x--x--x--x--x-|
--9--9--9--9--9---9--9--9--9--9---9--9--9--9--12-12-12-12-12-12-12-12-12-12-12-12-12-12-12-12-|
----------------------------------------------------------------------------------------------|

Post-Chorus 2
Gtr 1 (dist)
e|----------------------------------------------------------|
B|-9-9--9-9--9-9--9-9--9-9-9-9--7-7--7-7--7-7--7-7--7-7-7-7-|
G|-9-9--9-9--9-9--9-9--9-9-9-9--8-8--8-8--8-8--8-8--8-8-8-8-|
D|-9-9--9-9--9-9--9-9--9-9-9-9--9-9--9-9--9-9--9-9--9-9-9-9-|
A|----------------------------------------------------------|
E|----------------------------------------------------------|
Gtr 2 (clean)
e|----------------------------------------------------------|
B|----------------------------------------------------------|
G|----------------------------------------------------------|
D|-6-6--6-6--6-6--6-6--6-6-6-6--9-9--9-9--9-9--9-9--9-9-9-9-|
A|-7-7--7-7--7-7--7-7--7-7-7-7--9-9--9-9--9-9--9-9--9-9-9-9-|
E|----------------------------------------------------------|
Gtr 3 (dist)
e|-0-0--0-0--0-0--0-0--0-0-0-0--0-0--0-0--0-0--0-0--0-0-0-0-|
B|-0-0--0-0--0-0--0-0--0-0-0-0--0-0--0-0--0-0--0-0--0-0-0-0-|
G|-9-9--9-9--9-9--9-9--9-9-9-9--x-x--x-x--x-x--x-x--x-x-x-x-|
D|-9-9--9-9--9-9--9-9--9-9-9-9--9-9--9-9--9-9--9-9--9-9-9-9-|
A|-7-7--7-7--7-7--7-7--7-7-7-7--9-9--9-9--9-9--9-9--9-9-9-9-|
E|------------------------------7-7--7-7--7-7--7-7--7-7-7-7-|
Gtr 4 (dist)
e|----------------------------------------------------------|
B|----------------------------------------------------------|
G|-9-9--9-9--9-9--9-9--9-9-9-9--8-8--8-8--8-8--8-8--8-8-8-8-|
D|-x-x--x-x--x-x--x-x--x-x-x-x--x-x--x-x--x-x--x-x--x-x-x-x-|
A|-7-7--7-7--7-7--7-7--7-7-7-7--6-6--6-6--6-6--6-6--6-6-6-6-|
E|----------------------------------------------------------|

Gtr 1
----------------------------------------------------------------------------------|
--9--9---9--9---9--9---9--9---9--9--9--9--10-10--10-10--10-10--10-10--10-10-10-10-|
--9--9---9--9---9--9---9--9---9--9--9--9---9--9---9--9---9--9---9--9---9--9--9--9-|
-11-11--11-11--11-11--11-11--11-11-11-11--11-11--11-11--11-11--11-11--11-11-11-11-|
----------------------------------------------------------------------------------|
----------------------------------------------------------------------------------|
Gtr 2
----------------------------------------------------------------------------------|
----------------------------------------------------------------------------------|
----------------------------------------------------------------------------------|
--9--9---9--9---9--9---9--9---9--9--9--9---7--7---7--7---7--7---7--7---7--7--7--7-|
--7--7---7--7---7--7---7--7---7--7--7--7---7--7---7--7---7--7---7--7---7--7--7--7-|
----------------------------------------------------------------------------------|
Gtr 3
--0--0---0--0---0--0---0--0---0--0--0--0---0--0---0--0---0--0---0--0---0--0--0--0-|
--0--0---0--0---0--0---0--0---0--0--0--0---0--0---0--0---0--0---0--0---0--0--0--0-|
--x--x---x--x---x--x---x--x---x--x--x--x---x--x---x--x---x--x---x--x---x--x--x--x-|
-11-11--11-11--11-11--11-11--11-11-11-11---7--7---7--7---7--7---7--7---7--7--7--7-|
-11-11--11-11--11-11--11-11--11-11-11-11---7--7---7--7---7--7---7--7---7--7--7--7-|
--9--9---9--9---9--9---9--9---9--9--9--9---5--5---5--5---5--5---5--5---5--5--5--5-|
Gtr 4
----------------------------------------------------------------------------------|
----------------------------------------------------------------------------------|
--9--9---9--9---9--9---9--9---6--6--6--6---4--4---4--4---4--4---6--6---8--8--8--8-|
--x--x---x--x---x--x---x--x---x--x--x--x---x--x---x--x---x--x---x--x---x--x--x--x-|
--7--7---7--7---7--7---7--7---4--4--4--4---2--2---2--2---2--2---4--4---6--6--6--6-|
----------------------------------------------------------------------------------|

Gtr 1
----------------------------------------------------------------------|
-9-9--9-9--9-9--9-9--9-9-9-9--7---7---7--7---7--7---7--7---7--7--7--7-|
-9-9--9-9--9-9--9-9--9-9-9-9--8---8---8--8---8--8---8--8---8--8--8--8-|
-9-9--9-9--9-9--9-9--9-9-9-9--9---9---9--9---9--9---9--9---9--9--9--9-|
----------------------------------------------------------------------|
----------------------------------------------------------------------|
Gtr 2
----------------------------------------------------------------------|
----------------------------------------------------------------------|
----------------------------------------------------------------------|
-6-6--6-6--6-6--6-6--6-6-6-6--9---9---9--9---9--9---9--9---9--9--9--9-|
-7-7--7-7--7-7--7-7--7-7-7-7--9---9---9--9---9--9---9--9---9--9--9--9-|
----------------------------------------------------------------------|
Gtr 3
-0-0--0-0--0-0--0-0--0-0-0-0--0---0---0--0---0--0---0--0---0--0--0--0-|
-0-0--0-0--0-0--0-0--0-0-0-0--0---0---0--0---0--0---0--0---0--0--0--0-|
-9-9--9-9--9-9--9-9--9-9-9-9--x---x---x--x---x--x---x--x---x--x--x--x-|
-9-9--9-9--9-9--9-9--9-9-9-9--9---9---9--9---9--9---9--9---9--9--9--9-|
-7-7--7-7--7-7--7-7--7-7-7-7--9---9---9--9---9--9---9--9---9--9--9--9-|
------------------------------7---7---7--7---7--7---7--7---7--7--7--7-|
Gtr 4
----------------------------------------------------------------------|
----------------------------------------------------------------------|
-9-9--9-9--9-9--9-9--9-9-9-9--11-11--11-11--11-11--11-11--11-11-11-11-|
-x-x--x-x--x-x--x-x--x-x-x-x---x--x---x--x---x--x---x--x---x--x--x--x-|
-7-7--7-7--7-7--7-7--7-7-7-7---9--9---9--9---9--9---9--9---9--9--9--9-|
----------------------------------------------------------------------|

Gtr 1
----------------------------------------------------------------------------------|
--9--9---9--9---9--9---9--9---9--9--9--9--10-10--10-10--10-10--10-10--10-10-10-10-|
--9--9---9--9---9--9---9--9---9--9--9--9---9--9---9--9---9--9---9--9---9--9--9--9-|
-11-11--11-11--11-11--11-11--11-11-11-11--11-11--11-11--11-11--11-11--11-11-11-11-|
----------------------------------------------------------------------------------|
----------------------------------------------------------------------------------|
Gtr 2
----------------------------------------------------------------------------------|
----------------------------------------------------------------------------------|
----------------------------------------------------------------------------------|
--9--9---9--9---9--9---9--9---9--9--9--9---7--7---7--7---7--7---7--7---7--7--7--7-|
--7--7---7--7---7--7---7--7---7--7--7--7---7--7---7--7---7--7---7--7---7--7--7--7-|
----------------------------------------------------------------------------------|
Gtr 3
--0--0---0--0---0--0---0--0---0--0--0--0---0--0---0--0---0--0---0--0---0--0--0--0-|
--0--0---0--0---0--0---0--0---0--0--0--0---0--0---0--0---0--0---0--0---0--0--0--0-|
--x--x---x--x---x--x---x--x---x--x--x--x---x--x---x--x---x--x---x--x---x--x--x--x-|
-11-11--11-11--11-11--11-11--11-11-11-11---7--7---7--7---7--7---7--7---7--7--7--7-|
-11-11--11-11--11-11--11-11--11-11-11-11---7--7---7--7---7--7---7--7---7--7--7--7-|
--9--9---9--9---9--9---9--9---9--9--9--9---5--5---5--5---5--5---5--5---5--5--5--5-|
Gtr 4
----------------------------------------------------------------------------------|
----------------------------------------------------------------------------------|
-13-13--13-13--13-13--13-13--13-13-13-13--14-14--14-14--14-14--14-14--14-14-14-14-|
--x--x---x--x---x--x---x--x---x--x--x--x---x--x---x--x---x--x---x--x---x--x--x--x-|
-11-11--11-11--11-11--11-11--11-11-11-11--12-12--12-12--12-12--12-12--12-12-12-12-|
----------------------------------------------------------------------------------|

Bridge
Gtr 1
e|-----------------------------------------------------------------------|
B|-17:--17-17-17:--17-17-17:--17-17-17:--17-17-17:--17-17-17-17-17-17-17-|
G|-16:--16-16-16:--16-16-16:--16-16-16:--16-16-16:--16-16-16-16-16-16-16-|
D|--x:---x--x--x----x--x--x----x--x--x----x--x--x----x--x--x--x--x--x--x-|
A|-14:--14-14-14:--14-14-14:--14-14-14:--14-14-14:--14-14-14-14-14-14-14-|
E|-----------------------------------------------------------------------|
Gtr 2
e|--0:---0--0--0:---0--0--0:---0--0--0:---0--0--0:---0--0--0--0--0--0--0-|
B|--0:---0--0--0:---0--0--0:---0--0--0:---0--0--0:---0--0--0--0--0--0--0-|
G|--1:---1--1--1:---1--1--1:---1--1--1:---1--1--1:---1--1--1--1--1--1--1-|
D|--2:---2--2--2:---2--2--2:---2--2--2:---2--2--2:---2--2--2--2--2--2--2-|
A|--2:---2--2--2:---2--2--2:---2--2--2:---2--2--2:---2--2--2--2--2--2--2-|
E|--0:---0--0--0:---0--0--0:---0--0--0:---0--0--0:---0--0--0--0--0--0--0-|

Chorus 3
Gtr 1 (dist)
e|------------------------------------------------------------------|
B|------------------------------------------------------------------|
G|-6---6---6--6---6---6---6-----6-----------------------------------|
D|-6---6---6--6---6---6---6-----6-----6---6---6--6---6---6--6---6---|
A|-4---4---4--4---4---4---4-----4-----7---7---7--7---7---7--7---7---|
E|------------------------------------0---0---0--0---0---0--0---0---|
Gtr 2 (dist)
e|------------------------------------------------------------------|
B|------------------------------------------------------------------|
G|-9-9-9-9-9--9-9-9-9-9--11-11-11-11--9-9-9-9-9--9-9-9-9-9--9-9-9-9-|
D|-x-x-x-x-x--x-x-x-x-x---x--x--x--x--x-x-x-x-x--x-x-x-x-x--x-x-x-x-|
A|-7-7-7-7-7--7-7-7-7-7---9--9--9--9--7-7-7-7-7--7-7-7-7-7--7-7-7-7-|
E|------------------------------------------------------------------|

Gtr 1
--------------------------------------------------------------|
--------------------------------------------------------------|
--------------------------------------------------------------|
-4---4---4--4---4---4--4---4----2---2---2--2---2---2--2---2---|
-6---6---6--6---6---6--6---6----4---4---4--4---4---4--4---4---|
-7---7---7--7---7---7--7---7----5---5---5--5---5---5--5---5---|
Gtr 2
--------------------------------------------------------------|
--------------------------------------------------------------|
-8-8-8-8-8--8-8-8-8-8--8-8-8-8--6-6-6-6-6--6-6-6-6-6--8-8-8-8-|
-x-x-x-x-x--x-x-x-x-x--x-x-x-x--x-x-x-x-x--x-x-x-x-x--x-x-x-x-|
-6-6-6-6-6--6-6-6-6-6--6-6-6-6--4-4-4-4-4--4-4-4-4-4--6-6-6-6-|
--------------------------------------------------------------|

Gtr 1
--------------------------------------------------------------------------------|
--------------------------------------------------------------------------------|
-6---6---6--6---6---6---6-----6-------------------------------------------------|
-6---6---6--6---6---6---6-----6------6-----6-----6---6-----6-----6---6-----6----|
-4---4---4--4---4---4---4-----4------7-----7-----7---7-----7-----7---7-----7----|
-------------------------------------0-----0-----0---0-----0-----0---0-----0----|
Gtr 2
--------------------------------------------------------------------------------|
--------------------------------------------------------------------------------|
-9-9-9-9-9--9-9-9-9-9--11-11-11-11--13-13-13-13-13--13-13-13-13-13--13-13-13-13-|
-x-x-x-x-x--x-x-x-x-x---x--x--x--x---x--x--x--x--x---x--x--x--x--x---x--x--x--x-|
-7-7-7-7-7--7-7-7-7-7---9--9--9--9--11-11-11-11-11--11-11-11-11-11--11-11-11-11-|
--------------------------------------------------------------------------------|

Gtr 1
----------------------------------------------------------------------------|
----------------------------------------------------------------------------|
----------------------------------------------------------------------------|
--4-----4-----4---4-----4-----4---4-----4-----2---2---2--2---2---2--2---2---|
--6-----6-----6---6-----6-----6---6-----6-----4---4---4--4---4---4--4---4---|
--7-----7-----7---7-----7-----7---7-----7-----5---5---5--5---5---5--5---5---|
Gtr 2
----------------------------------------------------------------------------|
----------------------------------------------------------------------------|
-11-11-11-11-11--11-11-11-11-11--11-11-11-11--9-9-9-9-9--9-9-9-9-9--9-9-9-9-|
--x--x--x--x--x---x--x--x--x--x---x--x--x--x--x-x-x-x-x--x-x-x-x-x--x-x-x-x-|
--9--9--9--9--9---9--9--9--9--9---9--9--9--9--7-7-7-7-7--7-7-7-7-7--7-7-7-7-|
----------------------------------------------------------------------------|

Gtr 1
------------------------------------------------------------------|
------------------------------------------------------------------|
-6---6---6--6---6---6---6-----6-----------------------------------|
-6---6---6--6---6---6---6-----6-----6---6---6--6---6---6--6---6---|
-4---4---4--4---4---4---4-----4-----7---7---7--7---7---7--7---7---|
------------------------------------0---0---0--0---0---0--0---0---|
Gtr 2
------------------------------------------------------------------|
------------------------------------------------------------------|
-9-9-9-9-9--9-9-9-9-9--11-11-11-11--9-9-9-9-9--9-9-9-9-9--9-9-9-9-|
-x-x-x-x-x--x-x-x-x-x---x--x--x--x--x-x-x-x-x--x-x-x-x-x--x-x-x-x-|
-7-7-7-7-7--7-7-7-7-7---9--9--9--9--7-7-7-7-7--7-7-7-7-7--7-7-7-7-|
------------------------------------------------------------------|

Gtr 1
--------------------------------------------------------------|
--------------------------------------------------------------|
--------------------------------------------------------------|
-4---4---4--4---4---4--4---4----2---2---2--2---2---2--2---2---|
-6---6---6--6---6---6--6---6----4---4---4--4---4---4--4---4---|
-7---7---7--7---7---7--7---7----5---5---5--5---5---5--5---5---|
Gtr 2
--------------------------------------------------------------|
--------------------------------------------------------------|
-8-8-8-8-8--8-8-8-8-8--8-8-8-8--6-6-6-6-6--6-6-6-6-6--8-8-8-8-|
-x-x-x-x-x--x-x-x-x-x--x-x-x-x--x-x-x-x-x--x-x-x-x-x--x-x-x-x-|
-6-6-6-6-6--6-6-6-6-6--6-6-6-6--4-4-4-4-4--4-4-4-4-4--6-6-6-6-|
--------------------------------------------------------------|

Gtr 1
--------------------------------------------------------------------------------|
--------------------------------------------------------------------------------|
-6---6---6--6---6---6---6-----6-------------------------------------------------|
-6---6---6--6---6---6---6-----6------6-----6-----6---6-----6-----6---6-----6----|
-4---4---4--4---4---4---4-----4------7-----7-----7---7-----7-----7---7-----7----|
-------------------------------------0-----0-----0---0-----0-----0---0-----0----|
Gtr 2
--------------------------------------------------------------------------------|
--------------------------------------------------------------------------------|
-9-9-9-9-9--9-9-9-9-9--11-11-11-11--13-13-13-13-13--13-13-13-13-13--13-13-13-13-|
-x-x-x-x-x--x-x-x-x-x---x--x--x--x---x--x--x--x--x---x--x--x--x--x---x--x--x--x-|
-7-7-7-7-7--7-7-7-7-7---9--9--9--9--11-11-11-11-11--11-11-11-11-11--11-11-11-11-|
--------------------------------------------------------------------------------|

Gtr 1
----------------------------------------------------------------------------------------------|
----------------------------------------------------------------------------------------------|
----------------------------------------------------------------------------------------------|
--4-----4-----4---4-----4-----4---4-----4-----2------2-----2-----2-----2-----2-----2-----2----|
--6-----6-----6---6-----6-----6---6-----6-----4------4-----4-----4-----4-----4-----4-----4----|
--7-----7-----7---7-----7-----7---7-----7-----5------5-----5-----5-----5-----5-----5-----5----|
Gtr 2
----------------------------------------------------------------------------------------------|
----------------------------------------------------------------------------------------------|
-11-11-11-11-11--11-11-11-11-11--11-11-11-11--14-14-14-14-14-14-14-14-14-14-14-14-14-14-14-14-|
--x--x--x--x--x---x--x--x--x--x---x--x--x--x---x--x--x--x--x--x--x--x--x--x--x--x--x--x--x--x-|
--9--9--9--9--9---9--9--9--9--9---9--9--9--9--12-12-12-12-12-12-12-12-12-12-12-12-12-12-12-12-|
----------------------------------------------------------------------------------------------|

Post-Chorus 3 - Same as Post-Chorus 2
(fade out)
Enjoy.

            
            
Suggest correction
Creating personal tab
Creating personal tab
You can edit any tab online and save it as your Personal.

You can edit, replace or remove any tab part or add personal notes – all changes will be seen only by you.

Personal tabs can be accessed anytime from any device, even offline.
Learn more »
comments
print report bad tab
8 comments total. Showing first comments.
0 reply
Microbxer 10 Sep 13, 2006 09:36 AM

Really good man I like it :) 5 stars

0 reply
XAVIERSMITH 73 Oct 05, 2006 02:44 PM

JEEZ THIS IS LONG

0 reply
ls311 100 Apr 02, 2007 08:38 AM

im positive this is not the way they do it. you're over thinking it. but regardless of that you did make a tab that produces a similiar sound. so im giving you a 5.

guest
You may want to rate the tab now too:
select rating
Wanna post a correction for this tab? Suggest correction