Oops, an error
Loading. Please wait.

Night Drive Tab

version 4
version 4

Intro

Whole song

Interactive

218 views 1 this week
no commentswrite comment
1 2 3 4 5
please rate
add to favorites
launch autoscroll
font size
0
reset
how to read this tab
guitar tuner
Tab Pro tools
  • play this tab
  • loop segment
  • change instrument
  • show fretboard
  • metronome
Autoscroll
slow
fast
+/-
esc
set tempo
stop
Contributor
Difficulty
-------------------------------------------------------------------------------
                             Night Drive - ALL American Rejects
-------------------------------------------------------------------------------
Tabbed by: Addz Taylor
E-mail: Adamtaylor123@live.co.uk

Tuning: Standard (EADGBe)

As Per Usual, If You Spot Any Problems Email Me And Mark As Urgent,
I Learnt This By Ear So There May Be.


4 Beats Of Claps like ( C C CCC  C C CCC  C C CCC  C C CCC)-Example :P

e|---------------------------------------------------------------------------|
B|---------------------------------------------------------------------------|
G|---------------------------------------------------------------------------|
D|-----------------------------5-5-x-x-x-x-----------------------------------|
A|---7-7-x-x-x-x--2-2-x-x-x-x--3-3-x-x-x-x--5-5-5----------------------------|
E|---5-5-x-x-x-x--0-0-x-x-x-x---------------3-3-3----------------------------|

e|--------------------------------------------|
B|--------------------------------------------|
G|--------------------------------------------|
D|------------------------5-5-555-------------|
A|-----7-7--777--2-2-222--3-3-333--5-5--555---|
E|-----5-5--555--0-0-000-----------3-3--333---|

e|---------------------------------------------------------|
B|---------------------------------------------------------|
G|---------------------------------------------------------|
D|------------------------5-5-555--------------------------|
A|-----7-7--777--2-2-222--3-3-333--5-5--555----------------|
E|-----5-5--555--0-0-000-----------3-3--333-----/8b---8\---|



e|---------5-------------4RS--------5--6--0RS---|
B|------5-----5RS-----5----------5--------------|
G|---5-------------5----------5-----------------|
D|----------------------------------------------|
A|----------------------------------------------|
E|----------------------------------------------| x2

e|------------------------------------------------------------|
B|------------------------------------------------------------|
G|------------------------------------------------------------|
D|-------------------------------555555555555-----------------|
A|---777777777777--222222222222--333333333333--555555555555---|
E|---555555555555--000000000000----------------333333333333---| x2 
     ************  ************  ************  ************
(On Last One unmute the last note)

 

e|--------------------------------------------|
B|--------------------------------------------|
G|--------------------------------------------|
D|-----------------------5-5--555-------------|
A|---7-7--777--2-2--222--3-3--333--5-5--555---|
E|---5-5--555--0-0--000------------3-3--333---| x2 

e|-------------------------------------------------------|
B|-------------------------------------------------------|
G|-------------------------------------------------------|
D|-----------------------5-5--555------------------------|
A|---7-7--777--2-2--222--3-3--333--5-5--555--------------|
E|---5-5--555--0-0--000------------3-3--333--(PICKSLIDE)-|
     * *  ***  * *  ***  * *  ***  * *  ***

e|------------------------------------------------------------|
B|------------------------------------------------------------|
G|------------------------------------------------------------|
D|-------------------------------555555555555-----------------|
A|---777777777777--222222222222--333333333333--555555555555---|
E|---555555555555--000000000000----------------333333333333---| x2 
     ************  ************  ************  ************
(On Last One unmute the last note)
(Bass Bit With Singing + Drums)

 

e|--------------------------------------------|
B|--------------------------------------------|
G|--------------------------------------------|
D|-----------------------5-5--555-------------|
A|---7-7--777--2-2--222--3-3--333--5-5--555---|
E|---5-5--555--0-0--000------------3-3--333---| x2


e|------------------------------------------|
B|------------------------------------------|
G|------------------------------------------|
D|-----------------------5-5--555--7--7-777-|
A|---7-7--777--2-2--222--3-3--333--5--5-555-|
E|---5-5--555--0-0--000---------------------| x2



e|---------5-------------4RS--------5--6--0RS---|
B|------5-----5RS-----5----------5--------------|
G|---5-------------5----------5-----------------|
D|----------------------------------------------|
A|----------------------------------------------|
E|----------------------------------------------|

e|------------------------------------------|
B|------------------------------------------|
G|------------------------------------------|
D|-----------------------5-5--555--7-7--777-|
A|---7-7--777--2-2--222--3-3--333--5-5--555-|
E|---5-5--555--0-0--000---------------------|
     * *  ***  * *  ***  * *  ***  * *  ***

(CLAPS)

e|--------------------------------------------------------|
B|--------------------------------------------------------|
G|--------------------------------------------------------|
D|-----------------------------5-5-x-x-x-x----------------|
A|---7-7-x-x-x-x--2-2-x-x-x-x--3-3-x-x-x-x--5-5-5---------|
E|---5-5-x-x-x-x--0-0-x-x-x-x---------------3-3-3---------|
     * *          * *          * *          * * *

e|--------------------------------------------------------|
B|--------------------------------------------------------|
G|--------------------------------------------------------|
D|-----------------------------5-5-x-x-x-x----------------|
A|---7-7-x-x-x-x--2-2-x-x-x-x--3-3-x-x-x-x--5-5-5---------|
E|---5-5-x-x-x-x--0-0-x-x-x-x---------------3-3-3---------|

 

e|--------------------------------------------|
B|--------------------------------------------|
G|--------------------------------------------|
D|-----------------------5-5--555-------------|
A|---7-7--777--2-2--222--3-3--333--5-5--555---|
E|---5-5--555--0-0--000------------3-3--333---| x2

e|-------------------------------------------|
B|-------------------------------------------|
G|-------------------------------------------|
D|-----------------------5-5--555--7--7-777\-|
A|---7-7--777--2-2--222--3-3--333--5--5-555\-|
E|---5-5--555--0-0--000----------------------| x2


************************************
Legend 
| /   slide up
| \   slide down
| x   Mute note
| *   Palm Mute
| b   Bend
| R   Ring out
| RS  Ring Out Slightly 
************************************
comments
We did not receive enough feedback on this tab! Please rate:
print report bad tab
1 2 3 4 5
I want to post or [tab]
guest
You may want to rate the tab now too:
select rating
Please do not post tabs as comments. Select "correction" instead!