Oops, an error
Loading. Please wait.

Stab My Back bass

version 1
version 1

Whole song

  • I've added the fills in the chorus and solo, corre... Show more

Interactive

3,629 views 1 this week
4 commentsread comments
1 2 3 4 5
x 9
add to favorites
×
Save as Personal and add changes to this tab that will be seen only by you. Learn more ›
×
You can save this tab as Personal to edit and correct it or add notes. All changes will be seen only by you. Learn more »
launch autoscroll
font size
0
reset
guitar tuner
edit
Autoscroll
slow
fast
+/-
esc
set tempo
stop
Difficulty
Stab My Back by All-American RejectS
Tabbed By William Meighan, with help from Andrew Chase
e-mail: bulletproofginger@hotmail.com

NOTE This is my first tab, and I have just realized that it is possible to play some of 
notes with open string and I will be doing another version soon.
This is my first tab...take pity, e-mail corrections.


Intro
G-----------------------------------------------------------------|
D-----------------------------------------------------------------|
A-----------------------------------------------------------------|
E-------------------------8/3---------------------------8/3-------|

Verse
G-----------------------------------------------------------------|
D-----------------------------------------------------------------|
A-----------55555555-33333333-------------------------------------|
E—8/33333333-------------------00000000---------------------------|x2

Pre-Chorus
G-----------------------------------------------------------------|
D-----------------------------------------------------------------|
A-----------------------------------------------------------------|
E-5-55-5-55----7-77-7-77------------------------------------------|

Chorus
G-----------------------------------------------------------------|
D-----------------------------------------------------------------|
A-33333333--------------------------------------------------------|
E----------55555555-00000000-00000000-----------------------------|x2

G-----------------------------------------------------------------|
D-----------------------------------------------------------------|
A-33333333----------------------------33333333--------------------|
E----------55555555-00000000-33333333----------55555555-----------|

VERY SHORT PAUSE

Verse
G-----------------------------------------------------------------|
D-----------------------------------------------------------------|
A----------55555555-33333333--------------------------------------|
E-33333333-------------------00000000-----------------------------|

Pre-Chorus
G-----------------------------------------------------------------|
D-----------------------------------------------------------------|
A-----------------------------------------------------------------|
E-5-55-5-55----7-77-7-77------------------------------------------|

Chorus
G-----------------------------------------------------------------|
D-----------------------------------------------------------------|
A-33333333--------------------------------------------------------|
E----------55555555-00000000-00000000-----------------------------|x2

G-----------------------------------------------------------------|
D-----------------------------------------------------------------|
A-33333333----------------------------33333333--------------------|
E----------55555555-00000000-33333333----------55555555-----------|


G-----------------------------------------------------------------|
D-----------------------------------------------------------------|
A-33333333--------------------------------------------------------|
E----------55555555-00000000-00000000-----------------------------|x2

G-----------------------------------------------------------------|
D-----------------------------------------------------------------|
A-33333333----------------------------33333333--------------------|
E----------55555555-00000000-33333333----------55555555-----------|

Bridge
G-----------------------------------------------------------------|
D-----------------------------------------------------------------|
A----------55----------55----------55-----------------------------|
E-00000000----33333333----00000000--------------------------------|

G-----------------------------------------------------------------|
D-----------------------------------------------------------------|
A-----------------------------------------------------------------|
E-555555555----777777777------------------------------------------|

PAUSE

Chorus
G-----------------------------------------------------------------|
D-----------------------------------------------------------------|
A-33333333--------------------------------------------------------|
E----------55555555-00000000-00000000-----------------------------|x2

G-----------------------------------------------------------------|
D-----------------------------------------------------------------|
A-33333333--------------------------------------------------------|
E----------55555555-00000000-33333333-----------------------------|

Outro
G-----------------------------------------------------------------|
D-----------------------------------------------------------------|
A-33333333----------33333333----------33333333--------------------|
E----------55555555----------55555555----------55555555-----------|

G--------------------|
D--------------------|
A-33333333-----------|
E----------55555555--|


I'm pretty sure it's correct... Enjoy.

            
            
Suggest correction
Creating personal tab
Creating personal tab
You can edit any tab online and save it as your Personal.

You can edit, replace or remove any tab part or add personal notes – all changes will be seen only by you.

Personal tabs can be accessed anytime from any device, even offline.
Learn more »
comments
print report bad tab
4 comments total. Showing first comments.
0 reply
MusicMan24 1,124 Oct 07, 2008 03:37 PM

Perfect tab man! 5 Stars

+1 reply
randymeeks81 30 Dec 22, 2008 06:21 PM

missing a few fills in both the verse and the chorus. if listen to the album you can figure them out after you get the basics from this tab.

0 reply
china_dweller 275 Jan 04, 2009 04:51 AM

nice tab man. another 5 star from me

guest
Wanna post a correction for this tab? Suggest correction