Oops, an error
Loading. Please wait.

Strait Jacket Feeling intro tab

1,513 views 1 this week
3 commentsread comments
1 2 3 4 5
x 3
add to favorites
×
Save as Personal and add changes to this tab that will be seen only by you. Learn more ›
×
You can save this tab as Personal to edit and correct it or add notes. All changes will be seen only by you. Learn more »
launch autoscroll
font size
0
reset
how to read this tab
guitar tuner
edit
Autoscroll
slow
fast
+/-
esc
set tempo
stop
Author
e|----------------|
B|--0h2----5--4---|
G|----------------|
D|----------------|
A|----------------|
E|----------------|

e|----------------0------|
B|-0---2-----------------|
G|----------2------------|
D|-----------------------|
A|-----------------------|
E|-----------------------|


Pretty simple

dxcdfdfcv@yahoo.com

            
            
Suggest correction
Creating personal tab
Creating personal tab
You can edit any tab online and save it as your Personal.

You can edit, replace or remove any tab part or add personal notes – all changes will be seen only by you.

Personal tabs can be accessed anytime from any device, even offline.
Learn more »
Give kudos to tab author, rate the tab!
1 2 3 4 5
comments
print report bad tab
3 comments total.
0 reply
biohazard777 41 Nov 16, 2006 03:23 PM

way too short

0 reply
Pharoh 10 Jan 14, 2007 01:52 PM

Considering this is the !!!ONLY!!! strait jacket feeling, i cant give it 1 star, But it ain't great, right now listening to it i can at least hear more than ONE string hit on the first note (a.k.a a Chord) but again its the ONLY one. Keep trying

0 reply
Seblicar 10 Jun 25, 2009 11:01 AM

e/--------0------------------------------0--/
b/--0h2----------0h4---0--0----2------------/
g/-----------2----------------------2-------/
d/------------------------------------------/
a/------------------------------------------/
e/------------------------------------------/

this is as far as i got on the intro, hopefully this sounds better and sheds some light for u.

guest
You may want to rate the tab now too:
select rating
Wanna post a correction for this tab? Suggest correction