Oops, an error
Loading. Please wait.

Swing Swing intro tab

version 1
version 1
13,986 views 1 this week
8 commentsread comments
1 2 3 4 5
x 18
add to favorites
×
Save as Personal and add changes to this tab that will be seen only by you. Learn more ›
×
You can save this tab as Personal to edit and correct it or add notes. All changes will be seen only by you. Learn more »
launch autoscroll
font size
0
reset
how to read this tab
guitar tuner
edit
Autoscroll
slow
fast
+/-
esc
set tempo
stop
-------------------------------------------------------------------------------
                             Swing Swing - All-American Rejects
-------------------------------------------------------------------------------

Artist: All-American Rejects
Albulm: All-American Rejects
Song title: Swing swing
Tabbed by: Zero is great man.
Tuning: Standard: Right : EADGBe

Organ plays: Cm(C D# G) Gm(G A# D) Em(E F# C) Cm(C D# G) 
| |  | |  | | |  | |  | |  | |
| |  | |  | | |  | |  | |  | |
| |  | |D#| | |F#| |  | |A#| |
| |  | |  | | |  | |  | |  | |
| |__| |__| | |__| |__| |__| |
|   |   |   |   |   |   |    |(note these are where the keys are located,
| C |   | E |   | G |   |    | not how and where they are played)
|___|___|___|___|___|___|____|

Guitar plays:(With heavy distortion)
e|--------------------------------|
B|--------------------------------|
G|-5-5--5------------------5-5--5-|
D|-5-5--5--5-5--5--2-2--2--5-5--5-|
A|-3-5--3--5-5--5--2-2--2--3-3--3-|
E|---------3-3--3--0-0--0---------|


| /  slide up
| \  slide down
| h  hammer-on
| p  pull-off
| ~  vibrato
| +  harmonic
| x  Mute note

I'll probably have more of the song as soon as I figure out the rest.
Peace out.
================================================================================

            
            
Suggest correction
Creating personal tab
Creating personal tab
You can edit any tab online and save it as your Personal.

You can edit, replace or remove any tab part or add personal notes – all changes will be seen only by you.

Personal tabs can be accessed anytime from any device, even offline.
Learn more »
comments
print report bad tab
8 comments total. Showing first comments.
0 reply
Puuuding9er 0 Jan 27, 2003 07:00 PM

sorry man your tab is wrong the organ part goes: G(G B D) D(D F# A) Em(E G B) C(C E G)

-1 reply
af fan41 10 Jan 31, 2003 07:00 PM

Guitar plays:(With heavy distortion)
e|-------------------------------------|
B|-------------------------------------|
G|-------------------------------------|
D|6-6--6---6-6--6---6-6--6---10-10--10-|
A|6-6--6---6-6--6---6-6--6---10-10--10-|
E|4-4--4---3-3--3---4-4--4----8--8---8-|

0 reply
zeroisgreatman 2,153 Feb 10, 2003 07:00 PM

puuuding9er yeah, your right, uh, af, your kinda off yourself.

guest
You may want to rate the tab now too:
select rating
Wanna post a correction for this tab? Suggest correction