Oops, an error
Loading. Please wait.

Swing Swing tab

version 6
version 6
19,873 views 9 this week
23 commentsread comments
1 2 3 4 5
x 35
add to favorites
×
Save as Personal and add changes to this tab that will be seen only by you. Learn more ›
×
You can save this tab as Personal to edit and correct it or add notes. All changes will be seen only by you. Learn more »
launch autoscroll
font size
0
reset
how to read this tab
guitar tuner
edit
Autoscroll
slow
fast
+/-
esc
set tempo
stop
Author
-------------------------------------------------------------------------------
                             Swing Swing - All-american Rejects
-------------------------------------------------------------------------------

Tabbed by: Scatman
Email: Pavel_Israel@Hotmail.com

Tuning: Standart EADGBe

Intro:
  G        D        Em       C           G        D        Em       C
e|----------------------------------------------------------------------------
b|----------------------------------------------------------------------------
g|----------------------------------------------------------------------------
d|-5-5--5---0-0--0---2-2--2---10-10--10---5-5--5---0-0--0---2-2--2---10-10--10
a|-5-5--5---0-0--0---2-2--2---10-10--10---5-5--5---0-0--0---2-2--2---10-10--10
E|-3-3--3---2-2—-2---0-0—-0---8--8-—-8----3-3--3---2-2—-2---0-0—-0---8--8-—-8-


Verse:
      G          D          Em         C
e|----------------------------------------------------------------------
b|----------------------------------------------------------------------
g|----------------------------------------------------------------------
d|-----5-5--5-----5-5--5-----5-5--5-----10-10--10-----------------------
a|-----5-5--5-----5-5--5-----5-5--5-----10-10--10-----------------------
E|-----3-3--3-----2-2--2-----0-0--0-----8--8---8------------------------


Chorus:
  G                 D                 Em                C
e|----------------------------------------------------------------------
b|----------------------------------------------------------------------
g|-------------------7-7-7-7-7-7-7-7---------------------5-5-5-5-5-5-5-5
d|-5-5-5-5-5-5-5-5---7-7-7-7-7-7-7-7---2-2-2-2-2-2-2-2---5-5-5-5-5-5-5-5
a|-5-5-5-5-5-5-5-5---5-5-5-5-5-5-5-5---2-2-2-2-2-2-2-2---3-3-3-3-3-3-3-3
E|-3-3-3-3-3-3-3-3---------------------0-0-0-0-0-0-0-0------------------


Interlude:
  G                 G                 Em                C
e|----------------------------------------------------------------------
b|----------------------------------------------------------------------
g|-------------------------------------------------------5-5-5-5-5-5-5-5
d|-5-5-5-5-5-5-5-5---5-5-5-5-5-5-5-5---2-2-2-2-2-2-2-2---5-5-5-5-5-5-5-5
a|-5-5-5-5-5-5-5-5---5-5-5-5-5-5-5-5---2-2-2-2-2-2-2-2---3-3-3-3-3-3-3-3
E|-3-3-3-3-3-3-3-3---3-3-3-3-3-3-3-3---0-0-0-0-0-0-0-0------------------

e|---------------------
b|---------------------
g|--hold------hold-----
d|---10--------10------
a|---10--------10------
E|---9---------8-------
   I'll find someone new


Solo:
e|---------------------------------------15------14-12-------------------
b|-8/15-15-15-15-15-15-13-12--12-12-13--------12------12-12/13-----------
g|-------------------------------------12--------------------------------
d|-----------------------------------------------------------------------
a|-----------------------------------------------------------------------
E|-----------------------------------------------------------------------

e|----------------------------------------15-----------------------------
b|-15-15-15-15-15-15--13-12--13-12--13-----------12----------------------
g|-------------------------------------12------12---11-12/14-12----------
d|-----------------------------------------------------------------------
a|-----------------------------------------------------------------------
E|-----------------------------------------------------------------------

Outro:
e|----------------------------------------------------------------------
b|----------------------------------------------------------------------
g|-9-9--7-7--HOLD------------HOLD----------------------9-9--7-7---------
d|-9-9--7-7---9---------------10-----------------------9-9--7-7---------
a|-7-7--5-5---9---------------10-----------------------7-7--5-5---------
E|------------7---------------8-----------------------------------------
  Bury me  (you thought your problems were gone)        Carry  me

e|----------------------------------------------------------------------
b|----------------------------------------------------------------------
g|----------------------------------------------------------------------
d|---10-10-10-10-10-10-10-10-10-10-10-10-10-10-10-10--------------------
a|---10-10-10-10-10-10-10-10-10-10-10-10-10-10-10-10--------------------
E|---8--8--8--8--8--8--8--8--8--8--8--8--8--8--8--8---------------------
       (Away     Away     Away...................)


Intro(x1)
Chorus(x2)
Verse(x2)
Interlude(x2)
Chorus(x2)
Verse(x2)
Interlude(x2)
Chorus(x2)
Solo(x1)
Outro(x1)
Chorus(x6): fade out

| /  slide up
| \  slide down
| h  hammer-on
| p  pull-off
| ~  vibrato
| +  harmonic
| x  Mute note

===============================================================================

"Swing Swing" 

Days swiftly come and go.
I'm dreaming of her
She's seeing other guys
Emotions they stir
The sun is gone.
The nights are long
And I am left while the tears fall.

Did you think that I would cry,
on the phone?
Do you know what it feels like,
being alone?
I'll find someone new

Swing, Swing, Swing from the tangles of
My heart is crushed by a former love
Can you help me find a way
To carry on again.

Wish cast into the sky
I'm moving on
Sweet beginnings do arise
She knows I was wrong
The notes are old,
They bend, they fold
and so do I to a new love.

Bury me
(you thought your problems were gone)
Carry me
(away. away, away...)
Suggest correction
Creating personal tab
Creating personal tab
You can edit any tab online and save it as your Personal.

You can edit, replace or remove any tab part or add personal notes – all changes will be seen only by you.

Personal tabs can be accessed anytime from any device, even offline.
Learn more »
comments
print report bad tab
23 comments total. Showing first comments.
0 reply
DJSeebs 50 Jun 25, 2003 08:00 PM

OOooooo.... someone finally got the intro right!!
I'm giving you 5 stars just for that! :)

0 reply
Schwann 10 Jul 29, 2003 08:00 PM

what are u talking about that is deffinately nmot right....

0 reply
Scatman 50 Aug 12, 2003 08:00 PM

yes it is

guest
You may want to rate the tab now too:
select rating
Wanna post a correction for this tab? Suggest correction