Oops, an error
Loading. Please wait.

The Last Song solo tab

version 1
version 1

Solo

Whole song

Interactive

3,124 views 1 this week
3 commentsread comments
1 2 3 4 5
1 last vote to show rating
add to favorites
×
Save as Personal and add changes to this tab that will be seen only by you. Learn more ›
×
You can save this tab as Personal to edit and correct it or add notes. All changes will be seen only by you. Learn more »
launch autoscroll
font size
0
reset
how to read this tab
guitar tuner
edit
Autoscroll
slow
fast
+/-
esc
set tempo
stop
Author
-----------------------------------------------------------------------------
                        THE LAST SONG (SOLO) - The All-American Rejects
-----------------------------------------------------------------------------
Tabbed by: Jennifer
Email: sonic_speed_@hotmail.com

Tuning: Standard

I think I have the basic idea of this solo.

Played at the Chorus after the Bridge:
E---------------------------------------------------------------------|
B-14-14-14-\9-----/14-14-13-13--\9--9-9-9-9-14-14--13-13--\9--9-9-9-9-|
G---------------------------------------------------------------------|
D---------------------------------------------------------------------|
A---------------------------------------------------------------------|
E---------------------------------------------------------------------|

E---------------------------------------------------------------------|
B-14--13--14-14-14-14/16-16-16-16-/18-18-18-18-\16-16-16-16---14--/16-|
G---------------------------------------------------------------------|
D---------------------------------------------------------------------|
A---------------------------------------------------------------------|
E---------------------------------------------------------------------|

E---------------------------------------------------------------------|
B-16-16-16-/18-18-18-18-19-19-19-19-21-21-21-21-21-21-----------------|
G---------------------------------------------------------------------|
D---------------------------------------------------------------------|
A---------------------------------------------------------------------|
E---------------------------------------------------------------------|


E---------------------------------------------------------------------|
B-14-14-14-\9-----/14-14-13-13--\9--9-9-9-9-14-14--13-13--\9--9-9-9-9-|
G---------------------------------------------------------------------|
D---------------------------------------------------------------------|
A---------------------------------------------------------------------|
E---------------------------------------------------------------------|

E---------------------------------------------------------------------|
B-14--13--14-14-14-14/16-16-16-16-/18-18-18-18-\16-16-16-16---14--/16-|
G---------------------------------------------------------------------|
D---------------------------------------------------------------------|
A---------------------------------------------------------------------|
E---------------------------------------------------------------------|

E---------------------------------------------------------------------|
B-16-16-16-/18-18-18-18-19-19-19-19-21-21-21-21-21-21~--18---16---14~-|
G---------------------------------------------------------------------|
D---------------------------------------------------------------------|
A---------------------------------------------------------------------|
E---------------------------------------------------------------------|

| /  slide up
| \  slide down
| ~  vibrato
=============================================================================

            
            
Suggest correction
Creating personal tab
Creating personal tab
You can edit any tab online and save it as your Personal.

You can edit, replace or remove any tab part or add personal notes – all changes will be seen only by you.

Personal tabs can be accessed anytime from any device, even offline.
Learn more »
Give kudos to tab author, rate the tab!
1 2 3 4 5
comments
print report bad tab
3 comments total.
0 reply
TJ1991 2,044 Oct 28, 2006 04:48 AM

great tab, thanks a lot cos this is the only one on the net and its the best bit of the song

0 reply
GuitarYee 61 Jan 01, 2009 03:20 AM

Solo x3 | x16 x2 x2 x4 x4 x8
E|------------|---------11--/14-13--9---9--8----11---13---14---16-|
B|--/14-13-9--|--14-13--------------------------------------------|
G|------------|---------------------------------------------------|
D|------------|---------------------------------------------------| x2
A|------------|---------------------------------------------------|
E|------------|---------------------------------------------------|

I just -THINK- the solo is played this way..
Its not mine, but I got it from a site..
This sound pretty good I think,
but yours is not bad,
good job. :D

0 reply
GuitarYee 61 Jan 01, 2009 03:23 AM

Sorry, my mistake..
Here..

Solo
.. . . . . x3 | . . . . . . . . . . x16. . x2 . x2 . x4 . x4 . x8
E|------------|---------11--/14-13--9---9--8----11---13---14---16-|
B|--/14-13-9--|--14-13--------------------------------------------|
G|------------|---------------------------------------------------|
D|------------|---------------------------------------------------| x2
A|------------|---------------------------------------------------|
E|------------|---------------------------------------------------|

The '. . .' is just for the place of the . . x3 . . x16 . . etc.

guest
You may want to rate the tab now too:
select rating
Wanna post a correction for this tab? Suggest correction