Oops, an error
Loading. Please wait.

The Last Song bass

version 2
version 2

Whole song

Interactive

1,551 views 1 this week
1 commentread comment
1 2 3 4 5
1 last vote to show rating
add to favorites
×
Save as Personal and add changes to this tab that will be seen only by you. Learn more ›
×
You can save this tab as Personal to edit and correct it or add notes. All changes will be seen only by you. Learn more »
launch autoscroll
font size
0
reset
guitar tuner
edit
Autoscroll
slow
fast
+/-
esc
set tempo
stop
Author
some of the tabs for this i have seen are hard to understand....this one
i've done is a little easyier and corrected

Song: The Last Song
Artist: The All American Rejects

Intro
G|-------------------------------------------------------------------------|
D|-------------------------------------------------------------------------|
A|--4~----4--------------------------4~----4--------------------------4~---|
E|------------6~----6-----4~----4--------------6~----6-----4~----4---------|

Verse
G|-----------------------------------------------------------|
D|-----------------------------------------------------------|
A|--4(x32)---------------------------------------------------|  
E|-------------6(x32)---4(x32)---2(x32)----------------------|

Pre Chorus
G|--------------------------------------------------------------------------|
D|--------------------------------------------------------------------------|
A|---------------------------------------4444444444444444-------------------|   x2 
E|--6666666666666666---2222222222222222-------------------4444444444444444--|

Chorus
G|------------------------------------------------------|
D|------------------------------------------------------|
A|--4(x32)----------------------------------------------|   x2
E|-----------2(x32)---------7(x32)---------4(x32)-------|

Verse (Slightly Different)
G|-----------------------------------------------------------|
D|-----------------------------------------------------------|
A|--4(x32)---------------------------------------------------|  
E|-------------6(x32)----------4(x32)------------------------|

G|-------------------------------------------------------------------|
D|-------------------------------------------------------------------|
A|--4(x32)-----------------------------------------------------------|
E|------------6(x32)-----------4(x32)---2(x32)-----------------------|

Pre Chorus x2
Chorus x2


Interlude (No bass on first part)
G|---------------------------------------------|
D|---------------------------------------------|
A|--44444444---66666666---99999999---44444444--|
E|---------------------------------------------|

Chorus x2

            
            
Suggest correction
Creating personal tab
Creating personal tab
You can edit any tab online and save it as your Personal.

You can edit, replace or remove any tab part or add personal notes – all changes will be seen only by you.

Personal tabs can be accessed anytime from any device, even offline.
Learn more »
Give kudos to tab author, rate the tab!
1 2 3 4 5
comments
print report bad tab
1 comment total.
0 reply
TJ1991 2,044 Dec 12, 2006 04:17 AM

yeah... its ok. the interlude part is more like this:

G-----------------------------------
D-----------------------------------
A-4-4-4-4-4-4-4-4-4-6-6-6-6-6-6-4-6-
E-----------------------------------

G----------------------------------------
D----------------------------------------
A-9-9-9-9-9-4-6-9-11-11-11-11-11-11-11-11
E----------------------------------------

i think its done on a double bass, but hey, who's got a double bassist other than ELO?

guest
You may want to rate the tab now too:
select rating
Wanna post a correction for this tab? Suggest correction