Oops, an error
Loading. Please wait.

Time Stands Still bass

version 3
version 3

Whole song

Interactive

440 views 1 this week
no commentswrite comment
1 2 3 4 5
2 more votes to show rating
add to favorites
×
Save as Personal and add changes to this tab that will be seen only by you. Learn more ›
×
You can save this tab as Personal to edit and correct it or add notes. All changes will be seen only by you. Learn more »
launch autoscroll
font size
0
reset
guitar tuner
edit
Autoscroll
slow
fast
+/-
esc
set tempo
stop
Thought I’d tab this song out because the others are simple versions. 

Intro (they are ten’s not 1’s and 0’s, and 15’s not 1’s and 5’s
G|-----------------------------------|-------------------------------------|
D|-----------------------------------|-------------------------------------|
A|-3-3-3-xxxx—10-10-10—8-8-8-87810---|-3-3-3-xxxx-10-10-10—8-8-8/151515----|
E|-----------------------------------|-------------------------------------|

Verse  Comes in when he sings ‘The day I knew...’
G|-------------------------------------------------------------------------|
D|-------------------------------------------------------------------------|
A|-3-3-3-3--------------------------3-3-3-3--------------------------------|
E|---------3-3-3-3-1-1-1-1-1-1-1-1----------3-3-3-3-1~~--------------------|

Pre-chorus  ‘can you hear me sing’ listen for timing
G|----------|
D|----------|
A|-3--------|
E|---3~~----|

Chorus x1  

G|---------------------------------|-----------------------------------|
D|---------------------------------|-----------------------------------|
A|-3-3-3---------------------------|-3-3-3-----------------------------|
E|-------xxx-3-3-xx-1-1-1-xxx-1-1--|-------xxx-3-3-xx-1-1-1-xxx-1-1----|

G|----------------------------------|-----------------------------------|
D|----------------------------------|-----------------------------------|
A|—3-3-3-3--------------------------|-3-3-3-3-----------------/8-8-8-8--|
E|---------3-3-3-3-1-1-1-1-1-1-1-1--|---------3-3-3-3-1-1-1-1-----------|

Verse same as first one Come in half way through again (‘The days they turn...’)

G|-------------------------------------------------------------------------|
D|-------------------------------------------------------------------------|
A|-3-3-3-3--------------------------3-3-3-3--------------------------------|
E|---------3-3-3-3-1-1-1-1-1-1-1-1----------3-3-3-3-1~---------------------|

Pre-chorus

Chorus x1

G|---------------------------------|-----------------------------------|
D|---------------------------------|-----------------------------------|
A|-3-3-3---------------------------|-3-3-3-----------------------------|
E|-------xxx-3-3-xx-1-1-1-xxx-1-1--|-------xxx-3-3-xx-1-1-1-xxx-1-1----|

G|----------------------------------|-----------------------------------|
D|----------------------------------|-----------------------------------|
A|—3-3-3-3--------------------------|-3-3-3-3---------------------------|
E|---------3-3-3-3-1-1-1-1-1-1-1-1--|---------3-3-3-3-1-1-1-1-1-1-1-1---|


Bridge
G|-------------------------------------------------------------------------|
D|-------------------------------------------------------------------------|
A|-----------------3-3-3-3-------------------------3-3-3-3-3-3-3-3---------|
E|-0-0-0-0-1-1-1-1---------3-3-3-3-0-0-0-0-1-1-1-1-----------------0-0-0-0-|

G|----------------------------------------------|
D|----------------------------------------------|
A|---------3-3-3-3---------0-0-0-0--------------|
E|-1-1-1-1---------3-3-3-3---------3-3-3-3-1~---|

Guitar 

Then Verse again when he sings ‘she’s lost...’ 

G|-------------------------------------------------------------------------|
D|-------------------------------------------------------------------------|
A|-3-3-3-3--------------------------3-3-3-3----------------/88888888-------|
E|---------3-3-3-3-1-1-1-1-1-1-1-1----------3-3-3-3-1-1-1-1----------------|

Chorus x1 

G|---------------------------------|-----------------------------------|
D|---------------------------------|-----------------------------------|
A|-3-3-3---------------------------|-3-3-3-----------------------------|
E|-------xxx-3-3-xx-1-1-1-xxx-1-1--|-------xxx-3-3-xx-1-1-1-xxx-1-1----|

G|----------------------------------|-----------------------------------|
D|----------------------------------|-----------------------------------|
A|—3-3-3-3--------------------------|-3-3-3-3---------------------------|
E|---------3-3-3-3-1-1-1-1-1-1-1-1--|---------3-3-3-3-1-1-1-1-1-1-1-1---|


Outro similar to intro 

G|-----------------------------------|-------------------------------------|
D|-----------------------------------|-------------------------------------|
A|-3-3-3-3/10-10-10—8-8-8-87810------|-3-3-3-3/10-10-10—8-8-8-7810---------|
E|-----------------------------------|-------------------------------------|

G|-----------------------------------|-------------------------------------|
D|-----------------------------------|-------------------------------------|
A|-3-3-3-3/10-10-10—8-8-8-87810------|-3-3-3-3/10-10-10—1~~~~--------------|
E|-----------------------------------|-------------------------------------|

There you go, that is as near to 100% correct as I can get it, enjoy.


Suggest correction
Creating personal tab
Creating personal tab
You can edit any tab online and save it as your Personal.

You can edit, replace or remove any tab part or add personal notes – all changes will be seen only by you.

Personal tabs can be accessed anytime from any device, even offline.
Learn more »
Give kudos to tab author, rate the tab!
1 2 3 4 5
comments
print report bad tab
guest
Wanna post a correction for this tab? Suggest correction