Oops, an error
Loading. Please wait.

Too Far Gone tab

version 4
version 4

Whole song

Interactive

2,432 views 1 this week
no commentswrite comment
1 2 3 4 5
2 more votes to show rating
add to favorites
×
Save as Personal and add changes to this tab that will be seen only by you. Learn more ›
×
You can save this tab as Personal to edit and correct it or add notes. All changes will be seen only by you. Learn more »
launch autoscroll
font size
0
reset
how to read this tab
guitar tuner
edit
Autoscroll
slow
fast
+/-
esc
set tempo
stop
Author
Difficulty
       
Song: too far gone
Artist: the all-american rejects
tabbed by: Steph..... nural-sum
Intro/ verse: (x3)
e|----------------------------------|
B|------0------0------0------0------|
G|-------2------2------2------2-----|
D|----2------2------2------2--------|
A|--0-------------------------------|
E|----------------------------------|

e|----------------------------------|
B|------0------0------0------0------|
G|----2---2------2------2------2----|
D|--0--------0------0------0--------|
A|----------------------------------|
E|----------------------------------|

e|----------------------------------|
B|------0------0------0------0------|
G|----2---2------2------2------2----|
D|----------------------------------|
A|----------------------------------|
E|--2--------2------0------0--------|

e|----------------------------------|
B|------0------0------0------0------|
G|----2---2------2------2------2----|
D|--0--------0------0------0--------|
A|----------------------------------|
E|----------------------------------|

Verse   (rhythm) (x2)   finish with this second time
e|------------------------|-------------------------|
B|------------------------|-------------------------|
G|--2~--7~----------7~----|-----7777777777777777----|
D|--2~--7~--4~--2~--7~----|-----7777777777777777----|
A|--0~--5~--4~--2~--5~----|-----5555555555555555----|
E|----------2~--0~--------|-------------------------|

Chorus 
e|----------------------------------------------------------|
B|----------------------------------------------------------|
G|--------7~xx----------------------7~xx--------------------|
D|--4~xx--7~xx--7~xx--2~xx----4~xx--7~xx--7~xx--2~xx--------|
A|--4~xx--5~xx--7~xx--2~xx----4~xx--5~xx--7~xx--2~xx--------|
E|--2~xx--------5~xx--0~xx----2~xx--------5~xx--0~xx--------|
 
 'please speak slowly' (played with lead guitar intro) (x2)
e|--00000000000000>---00000000000000>-------------------------|
B|--00000000000000>---00000000000000>-------------------------|
G|--22222222222222>---22222222222222>-------------------------|
D|--22222222222222>---00000000000000>-------------------------|
A|--00000000000000>-------------------------------------------|
E|------------------------------------------------------------|

link
e|--------------------------------|
B|--------------------------------|
G|--2~xx--7~xx--------------7~----|
D|--2~xx--7~xx--4~xx--2~xx--7~----|
A|--0~xx--5~xx--4~xx--2~xx--5~----|
E|--------------2~xx--0~xx--------|

Verse 2
e|--------------------------------------------------------------------------|
B|--------------------------------------------------------------------------|
G|-------------------7777777777777777----------------------7777777777777777-|
D|-7777777777777777--7777777777777777--44444444--22222222--7777777777777777-|
A|-7777777777777777--5555555555555555--44444444--22222222--5555555555555555-|
E|-5555555555555555--------------------22222222--00000000-------------------|
    ....................................................................

e|--------------------------------------------------------------------------|
B|--------------------------------------------------------------------------|
G|-------------------7777777777777777----------------------7777777777777777-|
D|-7777777777777777--7777777777777777--44444444--22222222--7777777777777777-|
A|-7777777777777777--5555555555555555--44444444--22222222--5555555555555555-|
E|-5555555555555555--------------------22222222--00000000-------------------|
    ........................................................

Chorus 
e|----------------------------------------------------------|
B|----------------------------------------------------------|
G|--------7~xx----------------------7~xx--------------------|
D|--4~xx--7~xx--7~xx--2~xx----4~xx--7~xx--7~xx--2~xx--------|
A|--4~xx--5~xx--7~xx--2~xx----4~xx--5~xx--7~xx--2~xx--------|
E|--2~xx--------5~xx--0~xx----2~xx--------5~xx--0~xx--------|

  'please speak slowly' (played with lead guitar intro) (x4)
e|--00000000000000>---00000000000000>-------------------------|
B|--00000000000000>---00000000000000>-------------------------|
G|--22222222222222>---22222222222222>-------------------------|
D|--22222222222222>---00000000000000>-------------------------|
A|--00000000000000>-------------------------------------------|
E|------------------------------------------------------------|

Bridge                  Last time don’t play E5
e|------------------------------------------------------|(x4)
B|------------------------------------------------------|
G|-----7xx-------9xx------------------------------------|
D|-----7xx--7xx--9xx--222222xx--------------------------|
A|-----5xx--7xx--7xx--222222xx--------------------------|
E|----------5xx-------000000xx--------------------------|

e|--------------------------------------------------------------------------|
B|--------------------------------------------------------------------------|
G|----------777777xx------------------------------777777xx------------------|
D|-444444xx-777777xx-777777xx-222222xx---444444xx-777777xx-222222xx-2~------|
A|-444444xx-555555xx-777777xx-222222xx---444444xx-555555xx-222222xx-2~------|
E|-222222xx----------555555xx-000000xx---222222xx----------000000xx-0~------|

Link2
e|----------------------------------|
B|------0------0------0------0------|
G|-------2------2------2------2-----|
D|----2------2------2------2--------|
A|--0-------------------------------|
E|----------------------------------|

e|----------------------------------|
B|------0------0------0------0------|
G|----2---2------2------2------2----|
D|--0--------0------0------0--------|
A|----------------------------------|
E|----------------------------------|


e|----------------------------------|
B|------0------0------0------0------|
G|----2---2------2------2------2----|
D|----------------------------------|
A|----------------------------------|
E|--2--------2------0------0--------|

e|----------------------0-----------|
B|------0------0--------0-----------|
G|----2---2------2------2-----------|
D|--0--------0------0---2-----------|
A|----------------------0-----------|
E|----------------------------------|
 
'please speak slowly' (played with lead guitar intro) (x4)
e|--00000000000000>---00000000000000>-------------------------|
B|--00000000000000>---00000000000000>-------------------------|
G|--22222222222222>---22222222222222>-------------------------|
D|--22222222222222>---00000000000000>-------------------------|
A|--00000000000000>-------------------------------------------|
E|------------------------------------------------------------|

End on
e|----------------------------------|
B|----------------------------------|
G|-2~-------------------------------|
D|-2~-------------------------------|
A|-0~-------------------------------|
E|----------------------------------|

plz rate my tab!!!! it sounds 100% correct soooo yeah....any comments email me at sjw429@hotmail.com
love and light,
Steph

            
            
Suggest correction
Creating personal tab
Creating personal tab
You can edit any tab online and save it as your Personal.

You can edit, replace or remove any tab part or add personal notes – all changes will be seen only by you.

Personal tabs can be accessed anytime from any device, even offline.
Learn more »
Give kudos to tab author, rate the tab!
1 2 3 4 5
comments
print report bad tab
guest
You may want to rate the tab now too:
select rating
Wanna post a correction for this tab? Suggest correction