Oops, an error
Loading. Please wait.

Dont Want You No More Bass Tab

version 1
version 1

Whole song

Interactive

1,769 views 6 this week
no commentswrite comment
1 2 3 4 5
please rate
add to favorites
launch autoscroll
font size
0
reset
guitar tuner
Autoscroll
slow
fast
+/-
esc
set tempo
stop
Help us to improve Ultimate-Guitar.com Take our survey!
×
Difficulty
intermediate
-----------------------------------------------------------------------------
Don’t Want You No More – The Allman Brothers Band
-----------------------------------------------------------------------------
Tabbed by: Pat
E-mail: aerosmithfanatik@yahoo.com

Tuning: Standard

G|---------------------0-------------------------0---------------------------|
D|---------1-----1--3----------------1-----1--3------------------------------|
A|-----1-3----3----------3-------1-3----3----------3-------------------------|
E|--3------------------------3-----------------------------------------------|

G|-----------------------------------------------0---------------------------|
D|------------1------------3/5--3-1--------1--3------------------------------|
A|-----1--3-----3---1--3------------3-1-3----------3-------------------------|
E|--3-------3-----3----------------------------------------------------------|

G|---------------------0-------------------------0---------------------------|
D|---------1-----1--3----------------1-----1--3------------------------------|
A|-----1-3----3----------3-------1-3----3----------3-------------------------|
E|--3------------------------3-----------------------------------------------|

G|---------------------------------------------------------------------------|
D|------------1------------3/5--3-1------------------------------------------|
A|-----1--3-----3---1--3------------3-1--------------------------------------|
E|--3-------3-----3----------------------------------------------------------|

Transition to Organ Solo
G|--------5---------10--7----------------------------------------------------|
D|-----4---------9---------8-------------------------------------------------|
A|--3---------8--------------------------------------------------------------|
E|---------------------------------------------------------------------------|

Outro
G|-----------------------------------------8----8-10-8-10-12-10-8------------|
D|--------------------------8----8-10-8-10---10------------------------------|
A|----6---6-8-6-8-8/10-8-10---10---------------------------------------------|
E|--8---8--------------------------------------------------------------------|

G|---------------------------------------------------------------------------|
D|--5--3--------------5--3--------------5--3--------------5--3---------------|
A|--------6--5--------------6--5--------------6--5--------------6--5---------|
E|--------------6--3--------------6--3--------------6--3---------------------|

G|---------------------------------------------------------------------------|
D|--5--3--------------5--3--------------5--3--------------5--3---------------|
A|--------6--5--------------6--5--------------6--5--------------6--5---------|
E|--------------6--3--------------6--3--------------6--3---------------------|




| /  slide up
| \  slide down
| h  hammer-on
| p  pull-off
| ~  vibrato
| +  harmonic
| x  Mute note
=============================================================================
Suggest correction
Give kudos to tab author, rate the tab!
1 2 3 4 5
comments
print report bad tab
guest
You may want to rate the tab now too:
select rating
Wanna post a correction for this tab? Suggest correction