Oops, an error
Loading. Please wait.

Dont Want You No More Tab

version 1
version 1

Whole song

Interactive

5,561 views 30 this week
no commentswrite comment
1 2 3 4 5
please rate
add to favorites
launch autoscroll
font size
0
reset
how to read this tab
guitar tuner
Autoscroll
slow
fast
+/-
esc
set tempo
stop
Help us to improve Ultimate-Guitar.com Take our survey!
×
Author
2X
|---------------11b--------------------11b------------------11-------------------------------|
|-------11--13-------13--------11--13-------13------11--13------13--11--13-------------------|
|--s12---------------------12-------------------12--------------------------12--10-----------|
|-----------------------------------------------------------------------------------13--10---|
|--------------------------------------------------------------------------------------------|
|--------------------------------------------------------------------------------------------|

|--------------------------------------------------------------------------------------------|
|--------------------------------------------------------------------------------------------|
|--------------------------------------------------------------------------------------------|
|----------------------15--12----------------------------------------------------------------|
|------10--14------14----------14------------------------------------------------------------|
|--13----------13----------------------------------------------------------------------------|

1:27
|-------------------------------------------------------------------------|
|-------------------------------------------------------------------------|
|--------------------------------------10------10--12--10--12-------------|
|--------------10------10--13--10--13------13-----------------------------|
|--13--10--13------13-----------------------------------------------------|
|-------------------------------------------------------------------------|

|--------------------------11---------------------------------------------|
|--11------11--13--11--13------13-----------------------------------------|
|------12--------------------------10--12---------------------------------|
|------------------------------------------10--13-------------------------|
|-------------------------------------------------------------------------|
|-------------------------------------------------------------------------|

|------------------------------------------11------------------------------------------------|
|--13b--13b--13b--13b--13b--13b--13b--13b------11--13--------------------11h13p11------------|
|------------------------------------------------------12--12--12p10h12------------10h12-----|
|--------------------------------------------------------------------------------------------|
|--------------------------------------------------------------------------------------------|
|--------------------------------------------------------------------------------------------|

|--------------------------------------------------------------------------------------------|
|-----------13--11---------------------------------------------------------------------------|
|--12b--12----------12--10------10-----------------------------------------------------------|
|---------------------------13------13--10--13--10------10-----------------------------------|
|---------------------------------------------------13------13--10--13--10-------------------|
|---------------------------------------------------------------------------13---------------|

|--------------------------------------------11b--11----------------------|
|------------------------------------11--13-------------------------------|
|-----------------------10b------10---------------------------------------|
|--10--10h13p10--x--10-------13-------------------------------------------|
|-------------------------------------------------------------------------|
|-------------------------------------------------------------------------|

|-------------------------------------------------------------------------|
|--13--11--13--13--11--13--13--11--13--13--11h13--13--11------------------|
|-------------------------------------------------------------------------|
|-------------------------------------------------------------------------|
|-------------------------------------------------------------------------|
|-------------------------------------------------------------------------|

|-------------------------------------------------------------------------|
|--11--13--11---------------------------------11--------------------------|
|--------------12---10h12p10h12p10------10bh------10rb--12--10------------|
|-----------------------------------13------------------------------------|
|-------------------------------------------------------------------------|
|-------------------------------------------------------------------------|

|----------------------11b------------------------------------------------|
|--------------11-----------13--11-13--11---------------------------------|
|------10--12------12-----------------------------------------------------|
|--13---------------------------------------------------------------------|
|-------------------------------------------------------------------------|
|-------------------------------------------------------------------------|

|-------------------------------------------------------------------------|
|-------------------------------------------------------------------------|
|--12--10-----------------------------------------------------------------|
|----------13--10------10--13--10-----------------------------------------|
|------------------13--------------13--10---------------------------------|
|------------------------------------------13--11-------------------------|

|--------------------------------------------------------------------------------------11-------|
|--------------------------------------------------------------11------11--13--11--13-----------|
|--------------------------------------10------10--12--10--12------12---------------------------|
|--------------10------10--13--10--13------13---------------------------------------------------|
|--13--10--13------13---------------------------------------------------------------------------|
|-----------------------------------------------------------------------------------------------|

|------------------------------------------------------------------------------------|
|--13------------------13--11h13p11----------13--11----------------------------------|
|------10--12------------------------10--12----------10--12----------10--------------|
|--------------10--13----------------------------------------10--13------13----------|
|----------------------------------------------------------------------------10--12--|
|------------------------------------------------------------------------------------|

|----------------------------------------------------------------------------------------|
|--13--11------------------13--11h13p11----------13--11----------------------------------|
|----------10--12------------------------10--12----------10--12----------10--------------|
|------------------10--13----------------------------------------10--13------13----------|
|--------------------------------------------------------------------------------10--12--|
|----------------------------------------------------------------------------------------|
Suggest correction
Give kudos to tab author, rate the tab!
1 2 3 4 5
comments
print report bad tab
guest
You may want to rate the tab now too:
select rating
Wanna post a correction for this tab? Suggest correction