Oops, an error
Loading. Please wait.

Good Clean Fun Bass Tab

3,317 views 15 this week
no commentswrite comment
1 2 3 4 5
please rate
add to favorites
launch autoscroll
font size
0
reset
guitar tuner
Autoscroll
slow
fast
+/-
esc
set tempo
stop
Help us to improve Ultimate-Guitar.com Take our survey!
×
Contributor
Difficulty
intermediate
GOOD CLEAN FUN (Allman Brothers)  KEY:  C

Intro: guitars only x2
                C     (x4)			        	  C  (start verse)
-------|---------------|---------|-------------------------------|----------|
-------|---------------|---------|---10--8-----------------------|----------|
-6--8--|---------------|---------|-----------10--8--6------O-1-2-|--3-------|
-------|--8888888888---|----6--7-|-------------------------8-----|----------|

Verse:
C					      C	            C
--------------------|-------|----------------|-------------|-------|
--------------------|-------|----------------|-------------|-------|
3-r-3--3-r-3(hold)--|-6---5-|-3-r-3---3-r-3--|-3-r-3(hold)-|-6---5-|
--------------------|-------|----------------|-------------|-------|

C              C                       C        C
-------------|-----------------|----|---------|---------------|-----|---------|
---------h---|-----------------|----|---------|--------------|------|---------|
3-r-3--O-1-2-|--3-r-3----3-r-3-|6--5|-3-------|-3-r-3--3-r-3-|-6--5-|-3-------|
-------------|-----------------|----|---O-1-2-|---------------------|---O-2-3-|

Chorus:
Ab		Bb		Ab		  Bb	         D	   G
-------------|--------------|-------------|---------------|---------------|----|
-------------|--------------|--------------|--------------|---------------|----|
-------------|--------------|--------------|--------------|--5----5(hold)-|----|
-4--4--4--4--|--6--6--6--6--|--4--4--4--4--|--6--6--6--6--|---------------|-3--|(hold)

Chorus Alternative:

Ab		Bb	    Ab	         Bb          D	          G (hold)
------------|--------------|------------|----------|------------|----------|
---6--4--3--|---8---6---5--| ---6-4--3--|--8-6--5--|------------|----------|
------------|--------------|------------|----------|-5-r-5(hold)|----------|
-4----------|-6------------|--4---------|-6--------|------------|--3-------|

Bridge 1:
	F	   C		   G	         Bb  C
-------|---------|------=---|-----|------------|--------|------------------------------|
-----------------------------|---------|----------|-(x3)|------------|--------|-(x3)|--|
-5-6-7-|-8-8--6--|----5-6-7-|-----|------------|--------|-----|------------------------|
-------|-------6-|-88-------|-----|-3-3(hold)--|-6-rr-8-|------------------------------|

Interlude run (triplets):
----------------------------------------7--------------------------|
----------------------------7---8---10-----------------------------|
------------6---6---8---10-----------------------------------------|
--8-6-8-------8----------------------------------------------------|
 triplet   triplet

-8--7--8-------10--8--10---|---12-----14----15--|---------------|
--triplet----- triplet-----|--------------------|---------------|
---------------------------|--------------------|---------------|
---------------------------|--------------------|---------------|

Solo:

F (x2)	            C			REPEAT F C
------------------|--------------------|------------|
---3--1-----------|--------------------|------------|
--------3--1---[1]|-3-1-0-1---3-5-6-7--|------------|
-1-----------1----|--------------------|------------|

G	     F	        Eb   D D       C (hold)
-----------|-----------|-----------|------------|--|
-----------|-----------|-----------|------------|--|
-----------|-----------|--6--5-5---|-3----------|--|
-3--3-3--3-|-1-1-1-1---|-----------|------------|--|


F (x2)	            C			REPEAT F C
------------------|--------------------|-----------|-------------|
---3--1-----------|--------------------|-----------|-------------|
--------3--1---[1]|-3-1-O-1---3-5-6-7--|-----------|--3--1--0----|
-1-----------1----|--------------------|-----------|----------2--|

Ab		Bb	     Ab	         D	      G (hold)
------------|--------------|------------|------------|----------|
---6--4--3--|---8---6---5--|---6--4--3--|------------|----------|
------------|--------------|------------|-5--5--5--5-|----------|
-4----------|-6------------|-4----------|------------|--3-------|

-10--8----------------|------------|
-------10----8--------|------------|
----------------10--8-|-6----------|
----------------------|---8--6--3--|
 triplet     triplet


Bridge 2:
F       C (X3) G         Bb
--------------|---------|-------------|
--------------|---------|-------------|
-8-r-8--------|---------|-------------|
--------8-r-8-|-3-3-3-3-|-6-6-6-6-6-6-|

Structure:
Intro
Verse 1
Chorus
Intro repeat (short)
Verse 2
Chorus
Intro repeat (short)
Bridge
Breaks / interlude run I
Solo
Interlude run II
Bridge
Chorus
Intro repeat
Outro – stay on C (similar to intro)


Thanks to all of you who so generously share your work.  My attempt at payback :-)
---Bambam (hockeygodd@hotmail.com)
comments
We did not receive enough feedback on this tab! Please rate:
print report bad tab
1 2 3 4 5
I want to post or [tab]
guest
You may want to rate the tab now too:
select rating
Please do not post tabs as comments. Select "correction" instead!