Oops, an error
Loading. Please wait.

Hot Lanta Tab

version 1
version 1

Whole song

Interactive

12,487 views 12 this week
2 commentsread comments
1 2 3 4 5
excellent!
x 7
add to favorites
launch autoscroll
font size
0
reset
how to read this tab
guitar tuner
Autoscroll
slow
fast
+/-
esc
set tempo
stop
Help us to improve Ultimate-Guitar.com Take our survey!
×
Author
                          The Allman Brothers Band
                                 Hot 'Lanta

Intro:
|-------------------------------|
|-------------------------------|
|-5-------------5---------------|
|---7-7--5-7-7----7-7--5-7-7-5--|
|-------------------------------|
|-------------------------------|

|-------------------------------|
|-------------------------------|
|-5-------------5---------------|
|---7-7--5-7-7----7-7--5-7-7-5--|
|-------------------------------|
|-------------------------------|

|-------------------------------|
|-------------------------------|
|-5-------------5---------------|
|---7-7--5-7-7----7-7--5-7-7-5--|
|-------------------------------|
|-------------------------------|

|-------------------------------|
|-------------------------------|
|-5-------------5---------------|
|---7-7--5-7-7----7-7--5-7-7-5--|
|-------------------------------|
|-------------------------------|

Chorus:
|-5-----5-----------------------|
|---------8-5-------------------|
|---------------5-7--------5----|
|-------------7-----7--------7--|
|-------------------------------|
|-------------------------------|

|-10----10----------------------------|
|----------13-10----------------------|
|-------------------10--12--------5---|
|----------------12--------7--------7-|
|-------------------------------------|
|-------------------------------------|


|---------------------------------|
|-8---8---10--7-----6---8(10)---5-|
|---------------------------------|
|---------------------------------|
|---------------------------------|
|---------------------------------|


|-------------------------------|
|-------------------------------|
|-5-------------5---------------|
|---7-7--5-7-7----7-7--5-7-7-5--|
|-------------------------------|
|-------------------------------|



|-5-----5-----------------------|
|---------8-5-------------------|
|---------------5-7--------5----|
|-------------7-----7--------7--|
|-------------------------------|
|-------------------------------|

|-10----10----------------------------|
|----------13-10----------------------|
|-------------------10--12--------5---|
|----------------12--------7--------7-|
|-------------------------------------|
|-------------------------------------|


|---------------------------------|
|-8---8---10--7-----6---8(10)---5-|
|---------------------------------|
|---------------------------------|
|---------------------------------|
|---------------------------------|


|-------------------------------|
|-------------------------------|
|-5-------------5---------------|
|---7-7--5-7-7----7-7--5-7-7-5--|
|-------------------------------|
|-------------------------------|


Organ Solo


1st Guitar Solo:
|-------------------------------------8-10-12-10-8-10-|
|---8--10-10-10p8----10-10--10p8---10-----------------|
|-9---------------9--------------9--------------------|
|-----------------------------------------------------|
|-----------------------------------------------------|
|-----------------------------------------------------|

|-10-12-10-8-----------------------------------------------|
|------------10-8---------5-8------------------------------|
|-----------------9-7-5-7--------5h7p5---5h7p5-5h7p5-5h7p5-|
|----------------------------------------------------------|
|----------------------------------------------------------|
|----------------------------------------------------------|

|---------------------------------------|
|-5h8p5-------5h8p5-5-----5---------5-7-|
|-------5h7p5---------5-7---5-7---7-----|
|---------------------------------------|
|---------------------------------------|
|---------------------------------------|

|---8p7p5-----8p7p5-----8p7p5---5--8--8/12-|
|-5------8p7p5-----8p7p5-------------------|
|------------------------------------------|
|------------------------------------------|
|------------------------------------------|
|------------------------------------------|

|----8-10-10h12-8-10-/15-8-12p10p8----|
|-10-------------------------------10-|
|-------------------------------------|
|-------------------------------------|
|-------------------------------------|
|-------------------------------------|

|-15\12--15\12--15\12--15\12--15\12--15\12--15\12-|
|-------------------------------------------------|
|-------------------------------------------------|
|-------------------------------------------------|
|-------------------------------------------------|
|-------------------------------------------------|

|-12-12-12-12------(15)--------(15)------15-------|
|-13-13-13-13-15p13-15p13----15-15p13----15-13----|
|-------------------------14----------14-------14-|
|-------------------------------------------------|
|-------------------------------------------------|
|-------------------------------------------------|

|-(15)--------(15)----------------------------|
|--15p13----15-15p13----15-15p13----13-13--13-|
|--------14----------14----------14-----------|
|---------------------------------------------|
|---------------------------------------------|
|---------------------------------------------|

|----------------------------------------------------|
|-15p13----13--15p13----13--15p13----13--15p13----13-|
|-------14-----------14-----------14-----------14----|
|----------------------------------------------------|
|----------------------------------------------------|
|----------------------------------------------------|

|----15-----------------------17-17-|
|-15----13-15-13-----------17-------|
|----------------14-14-14-----------|
|-----------------------------------|
|-----------------------------------|
|-----------------------------------|

|-20p17--20p17--20p17--20p17--20p17--20p17--20p17--20p17--20p17--20p17--22-|
|------17-----17-----17-----17-----17-----17-----17-----17-----17-----17---|
|--------------------------------------------------------------------------|
|--------------------------------------------------------------------------|
|--------------------------------------------------------------------------|
|--------------------------------------------------------------------------|

|-20---17--20--15-15--17--15--12--15-|
|------------------------------------|
|------------------------------------|
|------------------------------------|
|------------------------------------|
|------------------------------------|


|-------------------------------|
|-------------------------------|
|-5-------------5---------------|
|---7-7--5-7-7----7-7--5-7-7-5--|
|-------------------------------|
|-------------------------------|


2nd Guitar Solo:
|-------------------------------------------------|
|-------------------4-5---4-5-7-5-7-8-7-8-10-8-10-|
|-----4-5-7---4-5-7-------------------------------|
|-5-7---------------------------------------------|
|-------------------------------------------------|
|-------------------------------------------------|

|-7--8-10-7--8-10-8------------------7-8-10-12-15-12-12--17-15-12-10-8-10---|
|-------------------10-10-8-10-----8--------------------------------------8-|
|--------------------------------9------------------------------------------|
|---------------------------------------------------------------------------|
|---------------------------------------------------------------------------|
|---------------------------------------------------------------------------|

|-------------------------------|
|-------------------------------|
|-5-------------5---------------|
|---7-7--5-7-7----7-7--5-7-7-5--|
|-------------------------------|
|-------------------------------|

|---------------------------------------------------------------------------|
|----------------------4-5-4---4---4-5-4---4---4-5-4---4---4-5-4---4-5-4---4|
|----------------4---7-------7---7-------7---7-------7---7-------7-------7--|
|------4-5-4-5-7---7--------------------------------------------------------|
|4-5-7----------------------------------------------------------------------|
|---------------------------------------------------------------------------|

|-------------8-10-8----12----8-10-8----8-|
|-/10-8-10-10--------10----10--------10---|
|-----------------------------------------|
|-----------------------------------------|
|-----------------------------------------|
|-----------------------------------------|

|--------------------------------|
|---8-10-8---8-------------------|
|-9--------9---7p5-5-7-----------|
|-----------------7----5-7-5---5-|
|----------------------------7---|
|--------------------------------|
End of Solo

|---------------------------------|
|-8---8---10--7-----6---8(10)---5-|
|---------------------------------|
|---------------------------------|
|---------------------------------|
|---------------------------------|

|-8-5---------------------------------------------3-5-|
|------8-5-----------5-------------5--------------3-5-|
|----------7-------7---5-7-----------7-5------------5-|
|--------------------------7---------------5-7--------|
|----------------------------------------7-----7------|
|-----------------------------------------------------|

Drum Solo

|-5-----5-----------------------|
|---------8-5-------------------|
|---------------5-7--------5----|
|-------------7-----7--------7--|
|-------------------------------|
|-------------------------------|

|-10----10----------------------------|
|----------13-10----------------------|
|-------------------10--12--------5---|
|----------------12--------7--------7-|
|-------------------------------------|
|-------------------------------------|


|--------------------------------------------------------------------|
|-8---8---10--7-----6---8(10)---5------------------------------------|
|--------------------------------------------------------------------|
|--------------------------------------------------------------------|
|--------------------------------------------------------------------|
|--------------------------------------------------------------------|

Ending:
|-12----------------------8/10----------------------------5-|
|-------13----15----10----6/8-----------------------------5-|
|---------------------------------------------------------6-|
|---------------------------------------------------------7-|
|-----------------------------------------------------------|
|-----------------------------------------------------------|

Song was written by Gregg Allman, Duane Allman, Dickey Betts
Butch Trucks, Berry Oakley and Jaimoe Johanny Johanson.
Suggest correction
What's this?
You can suggest a correction to this tab. Community and Mods will review your correction and vote to approve or reject it.
comments
print report bad tab
2 comments total.
0 reply
TheHeartbreaker 1,584 wrote on May 21 2007, 08:19 pm

Not bad at all.

However, I have a different way of playing the bridge between the choruses (where it goes back to the opening-riff sounding sequence).

It plays slightly differently.

Other than that, though, this is excellent.

0 reply
TheHeartbreaker 1,584 wrote on May 23 2007, 07:38 pm

Never mind - I misread the tab somehow. This is perfect.

guest
You may want to rate the tab now too:
select rating
Please do not post tabs as comments. Select "correction" instead!