Oops, an error
Loading. Please wait.

In Memory Of Elizabeth Reed Tab

version 1
version 1

Live

Whole song

Interactive

7,326 views 3 this week
7 commentsread comments
1 2 3 4 5
please rate
add to favorites
launch autoscroll
font size
0
reset
how to read this tab
guitar tuner
Tab Pro tools
  • play this tab
  • loop segment
  • change instrument
  • show fretboard
  • metronome
×
Best way to learn
"In Memory Of Elizabeth Reed"
Autoscroll
slow
fast
+/-
esc
set tempo
stop
Contributor
Difficulty
intermediate
In Memory of Elizabeth Reed                                            ~Zoso~
Live at Fillmore East

e|---7--------5---------7--------7-------------------------------------|X2
B|---8--------5---------8--------7-------------------------------------|
G|---9--------5---------9--------7-------------------------------------|
D|--10--------5--------10--------7-------------------------------------|
A|---------------------------------------------------------------------|
E|------------5------------------7-------------------------------------|

e|---------------------------------------------------------------------|
B|----10/-(12)/-10-------------10-/(12)-/-10-10------------------------|
G|----------------9-/(11)/-9---------------------9-/(11)/9-9-9---------|
D|---------------------------------------------------------------------|
A|---------------------------------------------------------------------|
E|---------------------------------------------------------------------|

e|--------------------------------------------------------------------------|
B|----------------------12-13-15-----13-15-17-------------------------------|
G|-9-11-12---11-12-14-------------------------------------------------------|
D|--------------------------------------------------------------------------|
A|--------------------------------------------------------------------------|
E|--------------------------------------------------------------------------|

e|----------------------------------------------------------------------------|
B|--15p13-15p13-12-13---------------------------------------------------------|
G|---------------------12-12-14---9---11/12-9-9-------------------------------|
D|----------------------------------------------------------------------------|
A|----------------------------------------------------------------------------|
E|----------------------------------------------------------------------------|

e|----------------12/(14)/12-------15p12----12------------------------------|
B|---10/(12)/10--------------------------15---15--13-15-13-12-13------------|
G|---------------------------------------------------------------12-12-14---|
D|--------------------------------------------------------------------------|
A|--------------------------------------------------------------------------|
E|--------------------------------------------------------------------------|

e|----------------------------------------------------------------------------|
B|----------------------------------------------------------------------------|
G|9-11-11/12--9-9-------------------------------------------------------------|
D|----------------------------------------------------------------------------|
A|--------------------------14-14/(15)/14-12-14-------------------------------|
E|----------------------------------------------12-12-------------------------|

e|--------------------------------------------------------------------------|
B|--------------------------------------------------------------------------|
G|--------------------------------------------------------------------------|
D|--------------------------------------------------------------------------|
A|---12/14-14-10-12-----------------------10h12-12/14-----------------------|
E|------------------12-12-----------10h12--------------12-12----------------|

e|--------------------------------------------------------------------------|
B|--------------------------------------------------------------------------|
G|--------------------------------------------------------------------------|
D|--------------------------------------------------------------------------|
A|---12-12p10----10---------------------------------------------------------|
E|------------12----12-12---------------------------------------------------|

e|----------------------------------------------------------------------------|
B|------8--10~~~---8-10-8----------------8--10/12-10-7/(8)--7-8-10------------|
G|----9-------------------9p7-9~~~----9----------------------------9----------|
D|----------------------------------------------------------------------------|
A|----------------------------------------------------------------------------|
E|----------------------------------------------------------------------------|

e|------------------------------------------------------------------------|X2
B|------------------------------------------------------------------------|
G|-----5----7/9-X-7-X---4-5-7----5X---------------------------------------|
D|---7---7--------------------------7X------------------------------------|
A|-------------------------------------7~~~-------------------------------|
E|------------------------------------------------------------------------|

e|--------------------------------------10-8-7----7-8-10-7------------------|
B|-----8-10~~~---8-10-8--------------8--------------------8-----------------|
G|--/9-------------------9p7-9----/9-----------------------9----------------|
D|--------------------------------------------------------------------------|
A|--------------------------------------------------------------------------|
E|--------------------------------------------------------------------------|

e|----------------------------------------------------------------------------|
B|----------------------------------------------------------------------------|
G|-----5----7/9X--7X-----4-5-7--7/9X--5X---4-5-4X-----------------------------|
D|---7---7-------------------------------7-------5X--5------------------------|
A|-------------------------------------------------7---7----------------------|
E|----------------------------------------------------------------------------|

e|---------------------10-----------------------------------------------------|
B|-------------10-13-------13---10--------------------------------------------|
G|-------8-11-----------------------------------------------------------------|
D|--7-10----------------------------------------------------------------------|
A-----------------------------------------------------------------------------|
E-----------------------------------------------------------------------------|

e|------------------------------------------------------------------------|X2
B|-------12----10---------------------12----10----------------------------|
G|--9-12---12----12-9-----------9--12----12----9--------------------------|
D|---------------------12-------------------------------------------------|
A|------------------------9-----------------------------------------------|
E|------------------------------------------------------------------------|

e|--------------------------------------------------------------------------|
B|---------15----13----------------------------15----13---------------------|
G|--12--15----15----15-12----12--15--12-----15----15----12------------------|
D|------------------------15------------------------------------------------|
A|--------------------------------------------------------------------------|
E|--------------------------------------------------------------------------|

e|------------------------------------------------------------------------|
B|-------12----10---------------------12----10----------------------------|
G|--9-12---12----12-9-----------9--12----12----9--------------------------|
D|---------------------12-------------------------------------------------|
A|------------------------9-----------------------------------------------|
E|------------------------------------------------------------------------|

e|------------------------------------------------------------------------|X2
B|--4/5---4/5---7p5--4/5--4/5---------------------------------------------|
G|--4/5---4/5---7p5--4/5--4/5--4/5----------------------------------------|
D|-----------------------------4/5----------------------------------------|
A|------------------------------------------------------------------------|
E|------------------------------------------------------------------------|

e|--5-----------------------------------------------------------------------|
B|----8--5------------------8/----------------------------------------------|
G|---------7-5--------------7/----------------------------------------------|
D|-------------5-7----------6/----------------------------------------------|
A|--------------------------7/----------------------------------------------|
E|--------------------------------------------------------------------------|


The solo starts here, it's basically Duane and Dickey improvising the hell out of their 
So the creativity of the solo is up to you.

Questions/Comments direct them at Homestar27@hotmail.com
comments
We did not receive enough feedback on this tab! Please rate:
print report bad tab
1 2 3 4 5
7 comments total. Showing first comments. show 3 bad comments
I want to post or [tab]
guest
You may want to rate the tab now too:
select rating
Please do not post tabs as comments. Select "correction" instead!