Oops, an error
Loading. Please wait.

In Memory Of Elizabeth Reed Live tab

version 4
version 4

Whole song

Interactive

640 views 6 this week
no commentswrite comment
1 2 3 4 5
1 last vote to show rating
add to favorites
×
Save as Personal and add changes to this tab that will be seen only by you. Learn more ›
×
You can save this tab as Personal to edit and correct it or add notes. All changes will be seen only by you. Learn more »
launch autoscroll
font size
0
reset
how to read this tab
guitar tuner
backing track
0:00
0:00
edit
Autoscroll
slow
fast
+/-
esc
set tempo
stop
Author
-----------------------------------------------------------------
  In Memory Of Elizabeth Reed Live - The Allman Brothers Band
-----------------------------------------------------------------

Tabbed By : Aeonoptic
e-mail: aeonoptic@gmail.com

Tuning: EADGBe

Throughout the intro plays:

  Cmaj7 Am7  Cmaj7  Bm7
E|7------5--|7-------7--|
B|8------5--|8-------7--|
G|9------5--|9-------7--|
D|10-----5--|10------7--|
A|----------|-----------|
E|----------|-----------|

[with volume swells]

E|---------|--------|-------------|-------------|-------|--------|7-8-10~~|8-10-12~~|
B|10br12~~~|--------|10br12br12~~~|-------------|--7-8~~|7-8-10~~|--------|---------|
G|---------|9br11~~~|-------------|9pbr11p7-9~~~|9------|--------|--------|---------|
D|---------|--------|-------------|-------------|-------|--------|--------|---------|
A|---------|--------|-------------|-------------|-------|--------|--------|---------|
E|---------|--------|-------------|-------------|-------|--------|--------|---------|

E|10p8-10-8-7-8---5----|---------|---------|12br14~~~|14\12\10-12\10\8|10\8\7--7------|
B|--------------8---5-7|7/8~\5~~~|10br12~~~|---------|----------------|----------8-5--|
G|---------------------|---------|---------|---------|----------------|--------------5|
D|---------------------|---------|---------|---------|----------------|---------------|
A|---------------------|---------|---------|---------|----------------|---------------|
E|---------------------|---------|---------|---------|----------------|---------------|

                 [swells stop]
E|--------------|-------------------|-------------|----------|-------------|
B|--------------|-------------------|-------------|----------|-------------|
G|5-4-------5p4~|5/7-5-4-------4-4--|/4-4---------|------4---|-------------|
D|----7-5-7-----|--------5-5/7------|-----7\5-7---|--5h7-----|5-7-7p5-5\2-2|
A|--------------|------------------7|------------7|7--------7|-------------|
E|--------------|-------------------|-------------|----------|-------------|

  [both guitars in unison]
E|----------|-------------|---------------------|------------|-------------|----------------|
B|---8-10~~~|8-10-8-------|--8-10/12~-12\10~-/8~|8\7/8-10----|-------------|----------------|
G|/9--------|-------9-7-9~|9--------------------|---------9~~|-----9--7----|-----7----------|
D|----------|-------------|---------------------|------------|9-10-------9~|9-10----10--7---|
A|----------|-------------|---------------------|------------|-------------|---------------7| x2
E|----------|-------------|---------------------|------------|-------------|----------------|

E|-------------|--------------|-------------------------|----------|
B|--8-10br12~~~|8-10-8--------|--8-12~-10~-8~-8\7/8-10--|h7h8p7h8~~|
G|9------------|--------9-7-9~|9-----------------------9|----------|
D|-------------|--------------|-------------------------|----------|
A|-------------|--------------|-------------------------|----------|
E|-------------|--------------|-------------------------|----------|

E|------------|------------|---------------------|-----------------12-8-5|
B|------------|------------|---------------------|-----------10-13-------|
G|-----9--7---|---7-9------|---------------------|------9-12-------------|
D|7-10------9-|10------10-7|9-10br11-9-----------|---10------------------|
A|------------|------------|-----------10-7--10-7|12---------------------|
E|------------|------------|---------------------|-----------------------|

  Am7
E|-----7---5-----------|-----7---5--|
B|5--8---8---8--5------|5--8---8---5|
G|----------------7p5--|------------|
D|--------------------7|------------|
A|---------------------|------------|  x2
E|---------------------|------------|
  
  Bm7
E|------10----8--------------|------10----8--|
B|8--11----11---11--8----8-11|8--11----11---8| 
G|--------------------10-----|---------------|
D|---------------------------|---------------|
A|---------------------------|---------------| x2
E|---------------------------|---------------|

E|--------8br10|------------|   |5-------------------|
B|4-5-4-5------|4-5-4-5-----|   |--8-5-----------8\--|
G|-------------|---------4-5|   |------7-5-------7\--|
D|-------------|------------|   |----------5-7---6\--|
A|-------------|------------|x2 |----------------7\--|
E|-------------|------------|   |--------------------|

Under the solos at least one guitar plays the chords:
  Cmaj7 Am7  Cmaj7  Bm7
E|7------5-------7-------7--|
B|8------5-------8-------7--|
G|9------5-------9-------7--|
D|10-----5-------10------7--|
A|--------------------------|
E|--------------------------|
with improvised rhythms

  Dickey's Solo
E|---------------|------------------------|-------------------|------------------------------|
B|---------------|------------------------|-------------------|------------------------------|
G|----5---5-7-5\4|------4-5-4-------------|----4---4-7-5--5-4~|7/9-9~-8/9--9/12-12-11/12--14\|
D|5-7---7--------|5-7-5--------7-h9-5--7--|5-7---7------------|------------------------------|
A|---------------|-----------------------7|-------------------|------------------------------|
E|---------------|------------------------|-------------------|------------------------------|

E|--------------------------|----------------------------------|-------------5---5-7-5-7-8-7-8|
B|--------------------------|--------------------5-----5------5|-7-5-7-8-7-8---8--------------|
G|----4---5-7--7-9-7-9/11-9\|------4-5---4-5-7-8---7-8---8-7-8-|------------------------------|
D|5-7---7-------------------|5-6-7-----7-----------------------|------------------------------|
A|--------------------------|----------------------------------|------------------------------|
E|--------------------------|----------------------------------|------------------------------|

E|10-8-10-12~--10-8-10--8-7-8-7-5-7---5-|-----------------------------|------------------|
B|----------------------------------8---|/10-8-7-8-7-5-4-5---------10~|10br12p8-10~-----8|
G|--------------------------------------|------------------4-5/7/9----|---------------9--|
D|--------------------------------------|-----------------------------|------------------|
A|--------------------------------------|-----------------------------|------------------|
E|--------------------------------------|-----------------------------|------------------|

E|---------------|--------|-------------|--------------------------------|----------------|
B|10--8--7--7/8-5|--8-10~~|10br12p8-10~~|--8-10br12br12-10br12-10br12br12|8--7--5-7/8-8-8~|
G|---------------|9-------|-------------|9-------------------------------|----------------|
D|---------------|--------|-------------|--------------------------------|----------------|
A|---------------|--------|-------------|--------------------------------|----------------|
E|---------------|--------|-------------|--------------------------------|----------------|

E|------------------|----------------------------------|-------------|--------------------|
B|8-7h8p7---7/5-5~~~|----7/8-8~-8/10-10b12-10pbr12-8\5~|--7/8-8~~-8~~|8b10-8pbr10\7-7\5-5~|
G|--------9---------|7/9-------------------------------|9------------|--------------------|
D|------------------|----------------------------------|-------------|--------------------|
A|------------------|----------------------------------|-------------|--------------------|
E|------------------|----------------------------------|-------------|--------------------|

E|-----------------|-----------|-------------|---------|----------------------------|
B|5~-5~-4-4-4-4-4-4|4-5-5-5-5-5|3-4-4-4-4-4-4|4-5-5-5-5|----------------------------|
G|-----------------|-----------|-------------|---------|--4---4-5-4----5-4-5-4---4--|
D|-----------------|-----------|-------------|---------|7---7-------7----------7---7|
A|-----------------|-----------|-------------|---------|----------------------------|
E|-----------------|-----------|-------------|---------|----------------------------|

E|-----------------------|--------------------------|--------------------|
B|-----------------------|--------------------------|--------------------|
G|--4---4-5-4---5-5/7~-7~|--4---4-5-4---4-5--4-5-4--|--5-4-5-4---5-5/7~-7|
D|7---7-------7----------|7---7-------7------------7|7---------7---------|
A|-----------------------|--------------------------|--------------------|
E|-----------------------|--------------------------|--------------------|

E|-------------------------|-------------------|------5-7-8-7-8-10b12-10b12-10b12|
B|-------------------------|--------5---5-7-5-7|5-7-8----------------------------|
G|--5-4-5-4---5-4-5-4---4--|5-4-5-7---7--------|---------------------------------|
D|7---------7---------7---7|-------------------|---------------------------------|
A|-------------------------|-------------------|---------------------------------|
E|-------------------------|-------------------|---------------------------------|

E|10b12-10b12-10b12-8~|---8----7-8-10-13b15|13b15-13b15|13b15-13b15|13b15-13b15|
B|--------------------|10---10-------------|-----------|-----------|-----------|
G|--------------------|--------------------|-----------|-----------|-----------|
D|--------------------|--------------------|-----------|-----------|-----------|
A|--------------------|--------------------|-----------|-----------|-----------|
E|--------------------|--------------------|-----------|-----------|-----------|
 
E|13b15-13b15-12~~|10-12-8-7-8-7-5-8|-----7-8-7-8-10-8-7-8-7---|-----7-8-7-8-10~~-10~~|
B|----------------|-----------------|8-10--------------------10|8-10------------------|
G|----------------|-----------------|--------------------------|----------------------|
D|----------------|-----------------|--------------------------|----------------------|
A|----------------|-----------------|--------------------------|----------------------|
E|----------------|-----------------|--------------------------|----------------------|

E|-----7-8p7-8-10-8-7-8-7---|----7-8-7-8-10p8-7-8-7---|---7-8--7-8--7-8-7|---7-8--7-8-10-8|
B|8-10--------------------10|8-10-------------------10|10----------------|10--------------|
G|--------------------------|-------------------------|------------------|----------------|
D|--------------------------|-------------------------|------------------|----------------|
A|--------------------------|-------------------------|------------------|----------------|
E|--------------------------|-------------------------|------------------|----------------|

E|10-12-12/15-15\12-12\10|10/12-12/15--13b15-13b15-13b15|15b17-15~~-12-15-15b17-15b17-15~~|
B|-----------------------|------------------------------|---------------------------------|
G|-----------------------|------------------------------|---------------------------------|
D|-----------------------|------------------------------|---------------------------------|
A|-----------------------|------------------------------|---------------------------------|
E|-----------------------|------------------------------|---------------------------------|

E|12-15-15b17-15pbr17-15b17-15pbr17|12-15-15b17-15pbr17-15b17-15pbr17|
B|---------------------------------|---------------------------------|
G|---------------------------------|---------------------------------|
D|---------------------------------|---------------------------------|
A|---------------------------------|---------------------------------|
E|---------------------------------|---------------------------------|

E|12-15-15b17-15pb17-15pb17-15pb17-15pbr17-12|12-15-15b17-15pb17-15pb17-15pb17-15pbr17-12|
B|-------------------------------------------|-------------------------------------------|
G|-------------------------------------------|-------------------------------------------|
D|-------------------------------------------|-------------------------------------------|
A|-------------------------------------------|-------------------------------------------|
E|-------------------------------------------|-------------------------------------------|

E|15b17-15-12----12---|----------------|-----------------|------------|
B|------------15----15|13-12-----------|-----------------|------------|
G|--------------------|------12--9-----|----7------------|------------|
D|--------------------|------------10-9|7h9----10-9-7-5-7|7-5------5-7|
A|--------------------|----------------|-----------------|----7--7----|
E|--------------------|----------------|-----------------|------------|

E|-----------------|--------------|-------------|-------------|
B|-----------------|------------9\|-------------|-------------|
G|--4-5-7-9~--9p7h9|--4-5-7--9--9\|--4-5-7--9~-9|--4-5-7--9~~~|
D|7----------------|7-------------|7------------|7------------|
A|-----------------|--------------|-------------|-------------|
E|-----------------|--------------|-------------|-------------|

[organ solo]

Duane's Solo
E|-----------------------|----------------|---------------------10----------|---------------|
B|10p8-8h10~--8-10-10br12|p8--------------|10p8-8h10----8-10b12----10pbr12p8|--8-8h10-------|
G|-----------------------|---7~--5-7-7b9~~|-----------9---------------------|9--------9-9-9~|
D|-----------------------|----------------|---------------------------------|---------------|
A|-----------------------|----------------|---------------------------------|---------------|
E|-----------------------|----------------|---------------------------------|---------------|

E|--------------------------------------|--------------------------|-----------------------|
B|10br12p8-8h10-10-10-10\8-8-8-8\7-7-7--|--------8-8-8h10p8---8----|8/10-10-10-10\8-8-8-8\5|
G|-------------------------------------7|7-7-7/9------------9---7-7|-----------------------|
D|--------------------------------------|--------------------------|-----------------------|
A|--------------------------------------|--------------------------|-----------------------|
E|--------------------------------------|--------------------------|-----------------------|

E|--------------------------|-----------------------------|----------------------|
B|5--------------5----------|-----------------------------|--------------8-5----5|
G|--7b9-7b9-7b9----5-7p5---5|5-5/7-7-7-7p5---5-5-5\4-4-4--|5/7-7-7-7\5-------7---|
D|-----------------------7--|--------------7-------------5|------------7---------|
A|--------------------------|-----------------------------|----------------------|
E|--------------------------|-----------------------------|----------------------|

E|--------------------------------------|----------------------------------------|
B|--------------------------------------|----------------8-----------------------|
G|5/7-7-7-7\5---5h7-5-------------------|5-7-5---5-7-7/9---9\7-5-7--5-7p5-7p5---5|
D|------------7-------7-5--5h7--5h7--5h7|------7------------------------------7--|
A|--------------------------------------|----------------------------------------|
E|--------------------------------------|----------------------------------------|

E|--------------------------------|-----------------------------|--------8p5---5-7-10p8---------|
B|----8---------------------------|----5------------------------|----8-5-----5----------10-10b12|
G|7/9---9\7p5---------5-7br9p5---5|7b9---7br9p5-7--5-7p5---5-7-5|7p5----------------------------|
D|------------7---5-7----------7--|----------------------7------|-------------------------------|
A|--------------------------------|-----------------------------|-------------------------------|
E|--------------------------------|-----------------------------|-------------------------------|

E|---------------------------------|---------------10b12~-10pbr12p8-10p8----8h10-7|
B|10pbr12p8-10p8---8-8/10-7--------|---8-10p8---8------------------------10-------|
G|---------------9----------7h9-9-9|/9--------9-----------------------------------|
D|---------------------------------|----------------------------------------------|
A|---------------------------------|----------------------------------------------|
E|---------------------------------|----------------------------------------------|

E|------------------------------|------------------------------|------------------------------|
B|8-8-8h10-10-10----------------|8/10-10-10-10\8-8-8-8\5-5-5-5~|5-8/10-10-10-10-8-10br12p8----|
G|---------------9\7-7-7-7/9-9-9|------------------------------|---------------------------9-7|
D|------------------------------|------------------------------|------------------------------|
A|------------------------------|------------------------------|------------------------------|
E|------------------------------|------------------------------|------------------------------|

E|-------------------------------|-----------------------------|---------|--------------|
B|8-8/10-10-10-10\8-8\5---5-----5|----5-5-5~-------------------|---------|--------------|
G|----------------------7---7b9--|7b9--------7-5-------5-7b9~~~|7pbrb9~~~|7pbr9p5-7b9~~~|
D|-------------------------------|---------------7-5-7---------|---------|--------------|
A|-------------------------------|-----------------------------|---------|--------------|
E|-------------------------------|-----------------------------|---------|--------------|

E|-------------------|---------------------------|----------------------|
B|-------------------|---------------------------|----------------------|
G|7br9p5\4~~~h5p4h5p4|7-5-4-----7-5-4------------|--7-5-4---------------|
D|-------------------|------7---------7----------|7-------7-------------|
A|-------------------|------------------5h7-5h7-7|-----------5h7-5h7-5h7|
E|-------------------|---------------------------|----------------------|

E|-------------------|-------------------|-------------------|---------------------|
B|-------------------|-------------------|-------------------|---------------------|
G|-------------------|---------5-4-------|-------------------|------4-5-7-5-4-5p4--|
D|----5-7-4-5---4h5-4|----5-7------5--5--|----5-7-5-4---5p4p0|4-5-7---------------5|
A|7-7---------5------|7-7---------------7|7-7---------5------|---------------------|
E|-------------------|-------------------|-------------------|---------------------|

E|-------------------|-----------------|-------------------|------------------|
B|-------------------|-----------------|-------------------|------------------|
G|-------------------|--------5-4-4----|5-4-4-----5-4-4----|5-4---------------|
D|----5-7-5-4---4h5-4|4-4-5-7-------5--|------5---------5--|----5-5-7-5h7-5h7\|
A|7-7---------5------|----------------7|--------7---------7|------------------|
E|-------------------|-----------------|-------------------|------------------|

E|--------------------|----------------------|-------------------------|
B|--------------------|----------------------|-------------------------|
G|--------------------|----------------------|-------------------------|
D|--------------------|----------------------|----7/9\7-5-7------------|
A|5h7-5h7~~--5h7p5-3-5|5h7-5h7~~--5h7p5-3-5-6|7-8-----------8-7-5\3-5h7|
E|--------------------|----------------------|-------------------------|

E|------------------|------------------|-----------------|---------------|
B|------------------|------------------|-----------------|---------------|
G|------------------|------------------|-----------------|---------------|
D|------------------|------------------|----7/9-7-5-7----|---------------|
A|7~-7~--7-5-3-3h5-7|7~-7~--7-5-3-3h5-7|5/7-----------8-7|--5-7-5--------|
E|------------------|------------------|-----------------|8-------8-7-5-7|

E|------------------|---------------------|-------------------|-----|
B|------------------|---------------------|-------------------|-----|
G|-----5-7-5---5----|------5-7-5-7-5------|5-7-5-------5-7-5--|7b9~~|
D|7~~~-------7---7-5|7~~~------------7-5-7|------7-5-7-------7|-----|
A|------------------|---------------------|-------------------|-----|
E|------------------|---------------------|-------------------|-----|

E|--------------------8p5---5---|---8-10br12p8-------------|------------------------------|
B|--------------8p5-5-----8---8b|10------------10-8-10-10~\|------------------------------|
G|--7-7-7-7-7p5-----------------|--------------------------|----5/7-7-7-7\5-5-7br9p5---5-7|
D|7-----------------------------|--------------------------|7-7----------------------7----|
A|------------------------------|--------------------------|------------------------------|
E|------------------------------|--------------------------|------------------------------|

E|-----------------|------------------------------|---------------|-----------------------|
B|-----------------|------------------------------|---------------|-----------------------|
G|-----------------|--------5-7-7br9p5---5h7-4-4-4|5-7-4----------|-----------------------|
D|9-9-9-5-5-7-5-4--|7-7-7-7------------7----------|------7-5-5h7-7|5h7-7-7-5---5h7-7-7-5--|
A|----------------5|------------------------------|---------------|----------7-----------7|
E|-----------------|------------------------------|---------------|-----------------------|

E|-----------------------|-----------------------|-----------------------|---------------------|
B|-----------------------|-----------------------|-----------------------|---------------------|
G|-----------------------|-----------------------|-----------------------|----------5-7-5------|
D|5h7-7-7-5---5h7-7-7-5--|5h7-7-7-5---5h7-7-7-5--|5h7-7-7-5---5h7-7-7-5--|5h7-7-7-7-------7-5-7|
A|----------7-----------7|----------7-----------7|----------7-----------7|---------------------|
E|-----------------------|-----------------------|-----------------------|---------------------|

E|-----------------------|-----------------------|-----------------|-----------------------|
B|-----------------------|-----------------------|-----------------|-----------------------|
G|-----------------------|-----------------------|----5--7br9p5---5|-----------------------|
D|5h7-7-7-5---5h7-7-7-5--|5h7-7-7-5---5h7-7-7-5--|5-7-----------7--|5h7-7-7-5---5h7-7-7-5--|
A|----------7-----------7|----------7-----------7|-----------------|----------7-----------7|
E|-----------------------|-----------------------|-----------------|-----------------------|

E|------------------5-5-7-8|-------------------15---------------|-------------------15|
B|------------5-8-8--------|----13----13-15b17----15----13-15b17|----13-15-15-15b17---|
G|--------5-7--------------|/14----14----------------14---------|/14------------------|
D|5h7-7-7------------------|------------------------------------|---------------------|
A|-------------------------|------------------------------------|---------------------|
E|-------------------------|------------------------------------|---------------------|

E|-----------------|------15-----------------------------|------------------------------------|
B|15-13-15p13------|15b17----15b17-15pbr17p13-15p13----13|15p13----13-15-15b17~--15pbr17-13-17|
G|------------14-12|--------------------------------14---|------14----------------------------|
D|-----------------|-------------------------------------|------------------------------------|
A|-----------------|-------------------------------------|------------------------------------|
E|-----------------|-------------------------------------|------------------------------------|

E|------15-----------------------------|------------------------------|
B|15b17----15b17-15pbr17p13-15p13----13|13h15-15-13-15-13-------------|
G|--------------------------------14---|------------------14-12-14-14\|
D|-------------------------------------|------------------------------|
A|-------------------------------------|------------------------------|
E|-------------------------------------|------------------------------|

E|12----12----------------------------------|----------------------------|
B|15b17-15b17-15p13----13-15-15br17p13----13|15b17-15-15p13----15b17-15~~|
G|------------------14-----------------14---|---------------14-----------|
D|------------------------------------------|----------------------------|
A|------------------------------------------|----------------------------|
E|------------------------------------------|----------------------------|

E|--------------------------------------------|------------------------|
B|13----13-13-15-17-15-13----13-15-17-15-13---|---15p13----15br17p13---|
G|---14-------------------14----------------14|14-------14-----------14|
D|--------------------------------------------|------------------------|
A|--------------------------------------------|------------------------|
E|--------------------------------------------|------------------------|

E|/17-20-17-20p17----20p17----20p17----20p17----20p17----20p17----20p17---|
B|----------------17-------17-------17-------17-------17-------17-------17|
G|------------------------------------------------------------------------|
D|------------------------------------------------------------------------|
A|------------------------------------------------------------------------|
E|------------------------------------------------------------------------|

E|20p17----20p17----20p17----20p17----20p17----20p17----20p17----20p17---|
B|------17-------17-------17-------17-------17-------17-------17-------17|
G|-----------------------------------------------------------------------|
D|-----------------------------------------------------------------------|
A|-----------------------------------------------------------------------|
E|-----------------------------------------------------------------------|

E|20p17----20p17----20p17----20p17----20p17----20p17----20p17----20p17---|
B|------17-------17-------17-------17-------17-------17-------17-------17|
G|-----------------------------------------------------------------------|
D|-----------------------------------------------------------------------|
A|-----------------------------------------------------------------------|
E|-----------------------------------------------------------------------|

E|20p17----20p17----20p17----20b22~~-20-17|20p17----20p17----20p17----20p17---------------|
B|------17-------17-------17--------------|------17-------17-------17-------17-20b22-20b22|
G|----------------------------------------|-----------------------------------------------|
D|----------------------------------------|-----------------------------------------------|
A|----------------------------------------|-----------------------------------------------|
E|----------------------------------------|-----------------------------------------------|

E|-----------------------------------|---------------------------------------|-----------|
B|20-17------------------------------|---------------------------------------|-----------|
G|------19-19-19\17-17-17-17\16-17-17|17\14-14-12-14-12-14-14-14-14\12-9-9h12|7b9~-7br9p5|
D|-----------------------------------|---------------------------------------|-----------|
A|-----------------------------------|---------------------------------------|-----------|
E|-----------------------------------|---------------------------------------|-----------|

E|--------|-----------|---------|----------|-------|--------------|-------------------------------|
B|--------|-----------|---------|----------|-------|--------------|15b17-----13-15b17-15-13-15br17|
G|7br9~~~~|----7b9~~~~|/9b12~~~~|--7br9~~~~|5-4----|-----5-7-5h7p5|-------14----------------------|
D|--------|7-7--------|---------|7---------|----7~~|--------------|-------------------------------|
A|--------|-----------|---------|----------|-------|--------------|-------------------------------|
E|--------|-----------|---------|----------|-------|--------------|-------------------------------|

E|---15-12-----------------------------|----------------|------15------------------|
B|---------15-15b17~--15-13h15p13----13|----------------|---13----15-13----13-15b17|
G|14------------------------------14---|14b16-14-12-14~~|14-------------14---------|
D|-------------------------------------|----------------|--------------------------|
A|-------------------------------------|----------------|--------------------------|
E|-------------------------------------|----------------|--------------------------|

                                     rk
E|----------------------------------|----12-15-13-12----12h13p12-13-12------------|
B|---13-15b17-15pbr17-13-15br17-15~~|--13------------15----------------15-13h15p13|
G|14--------------------------------|14-------------------------------------------|
D|----------------------------------|---------------------------------------------|
A|----------------------------------|---------------------------------------------|
E|----------------------------------|---------------------------------------------|

E|------------------|-----------------------------------|------------------------------------|
B|------13----------|-----------------------------------|------------------------------------|
G|12-14----14-12~~~~|12-12-12\11-11-11\7-7-7-7/9-9-9-5-5|12-12-12-12-12\9-9-9-9\5-5-5-5/7-7-7|
D|------------------|-----------------------------------|------------------------------------|
A|------------------|-----------------------------------|------------------------------------|
E|------------------|-----------------------------------|------------------------------------|
 
E|---------------------------------------|----------------------------------------|
B|---------------------------------------|----------------------------------------|
G|9-9-9-9-9/12-12-12-12/14-14-14-14\12---|9h12p9----9h12p9----9h12p9----9h12p9-9~~|
D|-------------------------------------12|-------12--------12--------12-----------|
A|---------------------------------------|----------------------------------------|
E|---------------------------------------|----------------------------------------|
 
E|---------------------------------------|---------------------------------------|
B|---------------------------------------|---------------------------------------|
G|9h12p9----9h12p9----9h12p9----9h12p9---|9h12p9----9h12p9----9h12p9----9h12p9---|
D|-------12--------12--------12--------12|-------12--------12--------12--------12|
A|---------------------------------------|---------------------------------------|
E|---------------------------------------|---------------------------------------|
 
E|---------------------------------------|--------------------------|
B|---------------------------------------|--------------------------|
G|9h12p9----9h12p9----9h12p9----9h12p9---|9h12p9----9h12p9----------|
D|-------12--------12--------12--------12|-------12--------12-----14|
A|---------------------------------------|--------------------------|
E|---------------------------------------|--------------------------|
 
E|---------------------------------------------------------------|
B|---------------------------------------------------------------|
G|12-14-12-12-14-12-12-14-12-12-14-12-12-14-12-12-14-12-12-14-12-|
D|---------------------------------------------------------------|
A|---------------------------------------------------------------|
E|---------------------------------------------------------------|

E|---------------------------------------------------------------|
B|---------------------------------------------------------------|
G|12-14-12-12-14-12-12-14-12-12-14-12-12-14-12-12-14-12-12-14-12-|
D|---------------------------------------------------------------|
A|---------------------------------------------------------------|
E|---------------------------------------------------------------|
 
E|---------------------------------------------------------------|
B|---------------------------------------------------------------|
G|12-14-12-12-14-12-12-14-12-12-14-12-12-14-12-12-14-12-12-14-12-|
D|---------------------------------------------------------------|
A|---------------------------------------------------------------|
E|---------------------------------------------------------------|

E|-------------------------------------------------------|
B|------------------------------------------13-15-15b17~~|
G|12-14-12-12-14-12-12-14-12-12-14-12-12-14--------------|
D|-------------------------------------------------------|
A|-------------------------------------------------------|
E|-------------------------------------------------------|

E|----------------------------------------|----------------------------------|
B|15b17-15b17-15pbr17----13-15-15br17p13--|15b17-15b17-15pbr17----13-15p13---|
G|-------------------14-----------------14|--------------------14----------14|
D|----------------------------------------|----------------------------------|
A|----------------------------------------|----------------------------------|
E|----------------------------------------|----------------------------------|

E|-----------------------------------------|--------------------12---------------|
B|15b17-15b17-15pbr17p13----13-15br17p13-15|15b17-15pbr17p13-15----13-15-13----13|
G|-----------------------14----------------|--------------------------------14---|
D|-----------------------------------------|-------------------------------------|
A|-----------------------------------------|-------------------------------------|
E|-----------------------------------------|-------------------------------------|

E|------------------------------12----------------12---------|
B|15b17-15b17-15pbr17p13--15b17----15p13----15b17----15p13---|
G|---------------------------------------14----------------14|
D|-----------------------------------------------------------|
A|-----------------------------------------------------------|
E|-----------------------------------------------------------|

E|------12----------------12-------12-------12-------12-------12---------|
B|15b17----15p13----15b17----15p13----15b17----15p13----15b17----15p13---|
G|---------------14----------------14----------------14----------------14|
D|-----------------------------------------------------------------------|
A|-----------------------------------------------------------------------|
E|-----------------------------------------------------------------------|

E|--------------------------------|15p12-15p12----12-15p12-15p12-15p12-15p12|
B|15b17-15b17-15-13-15p13----13-15|------------15---------------------------|
G|------------------------14------|-----------------------------------------|
D|--------------------------------|-----------------------------------------|
A|--------------------------------|-----------------------------------------|
E|--------------------------------|-----------------------------------------|

E|15p12-15p12-15p12-15p12-15p12-15p12-15p12-15p12|15p12-15p12-15-12-15-12-15-12|
B|-----------------------------------------------|-----------------------------|
G|-----------------------------------------------|-----------------------------|
D|-----------------------------------------------|-----------------------------|
A|-----------------------------------------------|-----------------------------|
E|-----------------------------------------------|-----------------------------|

E|15-12-15-12-15-12-15-12|15-12-15-12-12-15-12-15b17-15b17~| (solo ends)
B|-----------------------|---------------------------------|
G|-----------------------|---------------------------------|
D|-----------------------|---------------------------------|
A|-----------------------|---------------------------------|
E|-----------------------|---------------------------------| 

E|--------------|-------------|--------------|---------------------|
B|--------------|-------------|--------------|-------------5-------|
G|--5-7-5-7/9-9~|--5-7-5-7/9~~|--5-7-5-7/9-9~|--5-7-9--5-7----4-5--|
D|7-------------|7------------|7-------------|7-------------------7|
A|--------------|-------------|--------------|---------------------|
E|--------------|-------------|--------------|---------------------|

E|-----7---5----------|-----7---5----|-----7---5----------|-----7---5----|
B|5--8---8---8-5------|5--8---8---5~~|5--8---8---8-5------|5--8---8---5~~|
G|---------------7p5--|--------------|---------------7p5--|--------------|
D|-------------------7|--------------|-------------------7|--------------|
A|--------------------|--------------|--------------------|--------------|
E|--------------------|--------------|--------------------|--------------|

E|------10----8-------------|------10----8----|-----7---5----------|-----7---5----|
B|8--11----11---11-8----8-11|8--11----11---8~~|5--8---8---8-5------|5--8---8---5~~|
G|-------------------10-----|-----------------|---------------7p5--|--------------|
D|--------------------------|-----------------|-------------------7|--------------|
A|--------------------------|-----------------|--------------------|--------------|
E|--------------------------|-----------------|--------------------|--------------|

E|4-5--4-5-8br10~~|4-5--4-5----|4-5--4-5-8br10~~|4-5--4-5----|-----7---5|
B|----------------|------------|----------------|------------|5--8---8--|
G|----------------|---------4h5|----------------|---------4h5|----------|
D|----------------|------------|----------------|------------|----------|
A|----------------|------------|----------------|------------|----------|
E|----------------|------------|----------------|------------|----------|

| /  slide up
| \  slide down
| h  hammer-on
| p  pull-off
| ~  vibrato
| +  harmonic
| x  Mute note
Suggest correction
Creating personal tab
Creating personal tab
You can edit any tab online and save it as your Personal.

You can edit, replace or remove any tab part or add personal notes – all changes will be seen only by you.

Personal tabs can be accessed anytime from any device, even offline.
Learn more »
Give kudos to tab author, rate the tab!
1 2 3 4 5
comments
print report bad tab
guest
You may want to rate the tab now too:
select rating
Wanna post a correction for this tab? Suggest correction