Oops, an error
Loading. Please wait.

Instrumental Illness Bass Tab

1,810 views 6 this week
1 commentread comment
1 2 3 4 5
please rate
add to favorites
launch autoscroll
font size
0
reset
guitar tuner
Autoscroll
slow
fast
+/-
esc
set tempo
stop
Help us to improve Ultimate-Guitar.com Take our survey!
×
     E     E   E    E    E    E   E  E   E    
C||-----|------------------------------------|
G||-----|------------------------------------|
D||-----|------------------------------------|
A||-----|--7-------(7)-------(7)-----7-------|
E||--7--|-----(7)-------(7)-------7-----(7)--|
B||-----|------------------------------------|


   E   E  E   E    E   E  E   E       E   E  E   E    E   E  E   E    
----------------------------------|----------------------------------|
----------------------------------|----------------------------------|
----------------------------------|----------------------------------|
--(7)-----7-------(7)-----7-------|--(7)-----7-------(7)-----7-------|
-------7-----(7)-------7-----(7)--|-------7-----(7)-------7-----(7)--|
----------------------------------|----------------------------------|


   E   E  E   E    E    E   E   E       E   E  E   E    E   E  E   E    
------------------------------------|----------------------------------|
------------------------------------|----------------------------------|
------------------------------------|----------------------------------|
--(7)-----4---L---(5)---L---6---L---|--(7)-----7-------(7)-----7-------|
-------7-----(7)-------(7)-----(7)--|-------7-----(7)-------7-----(7)--|
------------------------------------|----------------------------------|


   E   E  E   E    E   E  E   E       E   E  E   E    E    E   E   E    
----------------------------------|------------------------------------|
----------------------------------|------------------------------------|
----------------------------------|----------6---L---(7)---L---8---L---|
--(7)-----7-------(7)-----7-------|--(7)-------------------------------|
-------7-----(7)-------7-----(7)--|-------7-----(7)-------(7)-----(7)--|
----------------------------------|------------------------------------|


   E    E   E   E    E    E   E   E       E   E  E   E    E   E  E   E    
--------------------------------------|----------------------------------|
--------------------------------------|----------------------------------|
--(9)---L-----------------------------|----------------------------------|
------------4---L---(5)---L---6-------|--(7)-----7-------(7)-----7-------|
-------(7)-----(7)-------(7)-----(7)--|-------7-----(7)-------7-----(7)--|
--------------------------------------|----------------------------------|


   E   E  E   E    E   E  E   E       E   E  E   E    E   E  E   E    
----------------------------------|----------------------------------|
----------------------------------|----------------------------------|
----------------------------------|----------------------------------|
--(7)-----7-------(7)-----7-------|--(7)-----7-------(7)-----7-------|
-------7-----(7)-------7-----(7)--|-------7-----(7)-------7-----(7)--|
----------------------------------|----------------------------------|


   E   E  E   E    E    E   E   E       E   E  E   E    E   E  E   E    
------------------------------------|----------------------------------|
------------------------------------|----------------------------------|
------------------------------------|----------------------------------|
--(7)-----4-------(5)-------6-------|--(7)-----7-------(7)-----7-------|
-------7-----(7)-------(7)-----(7)--|-------7-----(7)-------7-----(7)--|
------------------------------------|----------------------------------|


   E   E  E   E    E   E  E   E       E   E  E   E     E    E    E   E    
----------------------------------|--------------------------------------|
----------------------------------|--------------------------------------|
----------------------------------|--------------------------------------|
--(7)-----7-------(7)-----7-------|--(7)---------------------------------|
-------7-----(7)-------7-----(7)--|-------7-----(7)--------(7)------(7)--|
----------------------------------|----------9---L---(10)---L---11---L---|


  E   E   E   E    E    E   E   E       E   E  E   E    E   E  E   E    
------------------------------------|----------------------------------|
------------------------------------|----------------------------------|
------------------------------------|----------------------------------|
----------4---L---(5)---L---6---L---|--(7)-----7-------(7)-----7-------|
--7--(7)-----(7)-------(7)-----(7)--|-------7-----(7)-------7-----(7)--|
------------------------------------|----------------------------------|


   E   E  E   E    E    E   E   E       E   E  E   E    E    E   E   E    
------------------------------------|------------------------------------|
------------------------------------|------------------------------------|
------------------------------------|----------6---L---(7)---L---8---L---|
--(7)-----4---L---(5)---L---6---L---|--(7)-------------------------------|
-------7-----(7)-------(7)-----(7)--|-------7-----(7)-------(7)-----(7)--|
------------------------------------|------------------------------------|


   E   E  E   E    E    E   E   E       E   E  E   E    E    E   E   E    
------------------------------------|------------------------------------|
----------6---L---(7)---L---8---L---|--(9)--L--9---L---(7)---L---7---L---|
--(9)--L----------------------------|------------------------------------|
------------------------------------|------------------------------------|
-------7-----(7)-------(7)-----(7)--|-------7-----(7)-------(7)-----(7)--|
------------------------------------|------------------------------------|


   E   E  E   E     E    E    E   E      E  E  E   E    E    E   E   E    
--------------------------------------|----------------------------------|
--(6)--L--6---L-----------------------|--------6---L---(7)---L---6---L---|
------------------(10)---L---10---L---|--9--L----------------------------|
--------------------------------------|----------------------------------|
-------7-----(7)--------(7)------(7)--|-----7-----(7)-------(7)-----(7)--|
--------------------------------------|----------------------------------|


   E   E  E   E    E    E   E   E       E   E  E   E    E   E  E   E    
------------------------------------|----------------------------------|
------------------------------------|----------------------------------|
--(9)--L--7---L---(5)---L---6---L---|----------------------------------|
------------------------------------|--(7)-----7-------(7)-----7-------|
-------7-----(7)-------(7)-----(7)--|-------7-----(7)-------7-----(7)--|
------------------------------------|----------------------------------|


   E   E  E   E    E    E   E   E       E   E  E   E    E   E  E   E    
------------------------------------|----------------------------------|
------------------------------------|----------------------------------|
------------------------------------|----------------------------------|
--(7)-----4---L---(5)---L---6---L---|--(7)-----7-------(7)-----7-------|
-------7-----(7)-------(7)-----(7)--|-------7-----(7)-------7-----(7)--|
------------------------------------|----------------------------------|


   E   E  E   E    E    E   E   E       E   E  E   E    E   E  E   E    
------------------------------------|----------------------------------|
------------------------------------|----------------------------------|
------------------------------------|----------------------------------|
--(7)-----4---L---(5)---L---6---L---|--(7)-----7-------(7)-----7-------|
-------7-----(7)-------(7)-----(7)--|-------7-----(7)-------7-----(7)--|
------------------------------------|----------------------------------|


   E   E  E   E    E    E   E   E       E    S  S E   E    E    E   E   E    
------------------------------------|---------------------------------------|
------------------------------------|---------------------------------------|
------------------------------------|---------------------------------------|
--(7)-----4---L---(5)---L---6---L---|--(7)---L--4---------------------------|
-------7-----(7)-------(7)-----(7)--|-------(7)---4--(7)--(5)--(7)--6--(7)--|
------------------------------------|---------------------------------------|


   E    E   E   E    E    E   E   E      E  H        Q    E                
--------------------------------------|----------------------|-----|-----||
--------------------------------------|----------------------|-----|-----||
--------------------------------------|----------------------|-----|-----||
------------4---L---(5)---L---6---L---|----------------------|-----|-----||
--(7)--(7)-----(7)-------(7)-----(7)--|----------------------|-----|-----||
--------------------------------------|--5-------------------|-----|-----||




Duration Legend
---------------
W - whole
H - half
Q - quarter
E - 8th
S - 16th
T - 32nd
X - 64th
. - note dotted
|-n-|  - n-tuplets


Tablature Legend
----------------
L - tied note
x - dead note
g - grace note
(n) - ghost note
> - accentuded note
NH - natural harmonic
AH - artificial harmonic
TH - tapped harmonic
SH - semi harmonic
PH - pitch harmonic
h - hammer on
p - pull off
b - bend
br - bendRelease
pb - preBend
pbr - preBendRelease
brb - bendReleaseBend
\n/ - tremolo bar dip
\n - tremolo bar dive
-/n - tremolo bar Release up
/n\ - tremolo bar inverted dip
/n - tremolo bar return
-\n - tremolo bar Release down
S - shift slide
s - legato slide
/ -  slide into from below or out of upwards
\ -  slide into from above or out of downwards
~ - vibrato
W - wide vibrato
tr - trill
TP - tremolo picking
T - tapping
S - slap
P - pop
< - fade in
^ - brush up
v - brush down
Suggest correction
What's this?
You can suggest a correction to this tab. Community and Mods will review your correction and vote to approve or reject it.
comments
We did not receive enough feedback on this tab! Please rate:
print report bad tab
1 2 3 4 5
1 comment total.
0 reply
Andiamo114 16 wrote on May 5 2012, 01:40 pm

That's amazing, I've been trying to learn this off-and-on for years! I still don't get how he plays it, but the notes are spot-on!

guest
You may want to rate the tab now too:
select rating
Please do not post tabs as comments. Select "correction" instead!