Oops, an error
Loading. Please wait.

Jessica Bass Tab

version 2
version 2

Whole song

Interactive

2,770 views 6 this week
no commentswrite comment
1 2 3 4 5
excellent!
x 5
add to favorites
launch autoscroll
font size
0
reset
guitar tuner
Autoscroll
slow
fast
+/-
esc
set tempo
stop
Help us to improve Ultimate-Guitar.com Take our survey!
×
Author
Difficulty
intermediate
The Allman Brother Band-Jessica
Bass Tab

This is my first tab, i mean i think it's right. But it could be wrong in places. Also 
some of the timing is weird in places so, yeah watch out for that.
Hope you enjoy and find it helpful.

Intro:
G|-------2-------|--------2----| x2
D|---2/4---------|----2/4------|
A|----------0----|-----------0-|
E|---------------|-------------|

Verse and Main Riff:
G|----------2-2-2-------|
D|--------2-------4h2---|  X6
A|-0-0-2h4------------4-|
E|----------------------|

Pre Chorus:
G|---------------|
D|---------0-----|
A|--0------------|
E|---------------|

Verse and Main Riff:
G|----------2-2-2-------|
D|--------2-------4h2---|  X8
A|-0-0-2h4------------4-|
E|----------------------|

2nd Riff
G|-0---0-----0---0-----|-2---2----------------|
D|------0---0-----0---0|------2---2-----------| x3
A|---------------------|-----------4---4-0---0|
E|---------------------|----------------------|

G|-0---0-----0---0-----|-2---2----------------|-----------------------------------|
D|------0---0-----0---0|------2---2-----------|-----------0---0-----2---2---------|
A|---------------------|-----------4---4-0---0|------2---2-----0---0-----2---2----|
E|---------------------|----------------------|-3---3---------------------------0-|

Verse and Main Riff:
G|----------2-2-2-------|
D|--------2-------4h2---|  X8
A|-0-0-2h4------------4-|
E|----------------------|

Pre Chorus:
G|-------------------0--2--4--5--7--12--9--|
D|----------0--2--4------------------------|
A|-0--2--3---------------------------------|
E|-----------------------------------------|

Then theres a rest

3rd Riff:
G|----------5-5-5-2--|
D|-----7-------------| x6
A|-7h9--0------------|
E|-------------------|

Solo and Main Riff:
G|----------2-2-2-------|
D|--------2-------4h2---|  X32
A|-0-0-2h4------------4-|
E|----------------------|

Pre riff4:
G|--------------------2----------|
D|----------0-2h4--5---------0h2-|
A|-0--2--3---------------2h3-----|
E|-------------------------------|


Riff4:
G|---------------|
D|-0-------------| x50 odd(?)
A|------0--------|
E|---2----3-2-0--|

Prelude:
G|-----------------0-2-2h4-||-7-4-2------------------------|
D|-0-----------0-4---------||-------4-2-0------0-0-0-------| x2 from double
A|---2-----0h2-------------||--------------0h2-----------0-|     line
E|-----3-3-----------------||-------------------------3----|

G|-7-4-2-------|
D|-------4-2-0-| x3
A|-------------|
E|-------------|

G|-------------000-|-------------000-|
D|-000-222-444-----|-000-222-444-----|
A|-----------------|-----------------|
E|-----------------|-----------------|

2nd Riff
G|-0---0-----0---0-----|-2---2----------------|
D|------0---0-----0---0|------2---2-----------| x3
A|---------------------|-----------4---4-0---0|
E|---------------------|----------------------|

G|-0---0-----0---0-----|-2---2----------------|-----------------------------------|
D|------0---0-----0---0|------2---2-----------|-----------0---0-----2---2---------|
A|---------------------|-----------4---4-0---0|------2---2-----0---0-----2---2----|
E|---------------------|----------------------|-3---3---------------------------0-|

Verse and Main Riff:
G|----------2-2-2-------|
D|--------2-------4h2---|  X6
A|-0-0-2h4------------4-|
E|----------------------|

Outro:
G|-0----2\12--|
D|------------|
A|------------|
E|------------|

G|-----------------|
D|-----------------| x2
A|-000000000000000-|
E|-----------------|
Suggest correction
comments
print report bad tab
guest
You may want to rate the tab now too:
select rating
Wanna post a correction for this tab? Suggest correction