Oops, an error
Loading. Please wait.

Little Martha Tab

version 1
version 1

Whole song

Interactive

145,110 views 261 this week
11 commentsread comments
1 2 3 4 5
excellent!
x 45
add to favorites
launch autoscroll
font size
0
reset
how to read this tab
guitar tuner
Autoscroll
slow
fast
+/-
esc
set tempo
stop
Help us to improve Ultimate-Guitar.com Take our survey!
×
Tuning: standard

E B E G#B e


E       0 0 0 0 0 0  (pretty obvious!)
A       5 5 5 5 5 5  (1st finger barre)
C#m/E   x x 0 8 9 9  (x x 0 2 3 3)
C#m/B   x 0 x 8 9 9  (x 0 x 2 3 3)
A/B     x 0 x 5 5 5  (1st finger barre)
B       x 0 x 7 7 7  (1st finger barre)
B7      x 0 x 1 0 2  (x 0 x 1 0 3)
E/G#    4 0 0 3 0 0  (3 0 0 1 0 0)
F#      2 0 0 1 0 0  (3 0 0 1 0 0)


[Intro]

  (Freely)
e|------------------|--------------|-----------------------|------------|
B|-------0-------0--|----------4---|-------0---------------|------------|
G|--0--1------------|--0--1----1---|--0--1--------0-1p0----|------------|
D|--0---------2-----|--0--2----2---|--0---------2-------2--|--0------0--|
A|--0---------0--0--|--------------|--0------0-------------|------------|
E|--0------0--------|-------0------|--0--------------------|--0---0-----|
    ^                          ^      ^
 (strum)                    (strum)  (strum)


(Part 1)

      E
e|--------------0----|-------------------|------------------|-----------------|
B|--------0-----0----|----0--------------|--------0---------|-----------------|
G|--0h1---0----------|----0-----1p0------|--0h1---0---------|----1-----0------|
D|--0h2--------------|----------2p0------|--0h2---------2---|----2-----0------|
A|-------------------|-------------------|--------------4---|-----------------|
E|--0---0---0---0----|--0---0---0---0----|--0---0---0---0---|--0---0---0---0--|

    1 . 2 . 3 . 4 .     1 . 2 . 3 . 4 .     1 . 2 . 3 . 4 .    1 . 2 . 3 . 4 .

e|--------------0----|-------------------|------------------|------------------|
B|--------0-----0----|----0--------------|--------0---------|------------------|
G|--0h1---0----------|----0-----1p0------|--0h1---0---------|----0-------------|
D|--0h2--------------|----------2p0------|--0h2---------2---|----------0-------|
A|-------------------|-------------------|--------------4---|----0-------------|
E|--0---0---0---0----|--0---0---0---0----|--0---0---0---0---|--0---0---0---0---|

   1 . 2 . 3 . 4 .     1 . 2 . 3 . 4 .     1 . 2 . 3 . 4 .    1 . 2 . 3 . 4 .

   A

e|--------------5----|-------------------|------------------|------------------|
B|--------5-----5----|----5--------------|--------5---------|----7-----5-------|
G|--5h6---5----------|----5-----6p5------|--5h6---5---------|----------5-------|
D|--5h7--------------|----------7p5------|--5h7---------7---|----7-----5-------|
A|-------------------|-------------------|--------------9---|------------------|
E|--5---5---5---5----|--5---5---5---5----|--5---5---5---5---|--5---5---5---0---|

   1 . 2 . 3 . 4 .     1 . 2 . 3 . 4 .     1 . 2 . 3 . 4 .    1 . 2 . 3 . 4 .

    E
e|--------------0----|-------------------|------------------|------------------|
B|--------0-----0----|----0--------------|--------0---------|------------------|
G|--0h1---0----------|----0-----1p0------|--0h1---0---------|----0-------------|
D|--0h2--------------|----------2p0------|--0h2---------2---|----------0-----0-|
A|-------------------|-------------------|--------------4---|----0-------------|
E|--0---0---0---0----|--0---0---0---0----|--0---0---0---0---|--0---0---0---0---|

   1 . 2 . 3 . 4 .     1 . 2 . 3 . 4 .     1 . 2 . 3 . 4 .    1 . 2 . 3 . 4 .

        [To Coda]    C#m/E  A/B      E                       C#m/E  A/B    B7
e|--------------|--9-----5-------7--|------7-----7------|--9-----5-----2---|
B|--------------|--9-----5-------7--|--------7-----7----|--9-----5-----0---|
G|--------------|--8-----5-------7--|----7-----7--------|--8-----5-----1---|
D|--0-----0-----|--0----------------|-------------------|--0-----5---------|
A|--------------|------0-----0------|--0---0---0---0----|------0-----0-----|
E|--0-----0-----|-------------------|-------------------|------------------|

    1  .  2  .      1 . 2 . 3 . 4 .     1 . 2 . 3 . 4 .    1 . 2 . 3 . 4 .

                      C#m/E  A/B    E                          E/G#   F#
e|------2-----2------|--9-----5-----7----|------7-----7------|----0-----0------|
B|----0---0-0---0----|--9-----5-----7----|--------7-----7----|------------0----|
G|-------------------|--8-----5-----7----|----7-----7--------|--3---3-1-----0--|
D|-------------------|--0----------------|-------------------|-----------------|
A|--0---0---0---0----|------0-----0------|--0---0---0---0----|-----------------|
E|-------------------|-------------------|-------------------|--4-----2-----0--|

   1 . 2 . 3 . 4 .     1 . 2 . 3 . 4 .     1 . 2 . 3 . 4 .    1 . 2 . 3 . 4 .


[1.]                 [2.]

e|----------0------|  e|---14-11-12------|
B|----------0------|  B|------------12---|
G|----------0------|  G|-----------------|
D|-----------------|  D|----------0------|
A|-----------------|  A|-------------0---|
E|----4-p0-----0---|  E|-------0---------|

      1  .  2  .            1  .  2  .

(Part 2)

   B  C#m/B  B         A/B                 G  C#m/B  B        A/B

e|--7-----9-9-7---7--|----5-----5--------|--7-----9-9-7---7--|----5-5----------|
B|--7-------9-7---7--|----5-------5------|--7-------9-7---7--|----5-5----------|
G|--7---8---9-7-7-7--|----5---5-----5----|--7---8---8-7-7-7--|----5-5----------|
D|-------------------|-------------------|-------------------|-----------------|
A|--0---0---0---0----|--0---0---0---0----|--0---0---0---0----|--0---0---0---0--|
E|-------------------|-------------------|-------------------|-----------------|

   1 . 2 . 3 . 4 .     1 . 2 . 3 . 4 .     1 . 2 . 3 . 4 .     1 . 2 . 3 . 4 .

   B  C#m/B  B          A/B                B7   A/B    B

e|--7-----9-9-7---7--|----5-----5--------|--2-----5-----7----|------7-----7----|
B|--7-------9-7---7--|----5-------5------|--0-----5-----7----|--------7-----7--|
G|--7---8---9-7-7-7--|----5---5-----5----|--1-----5-----7----|----7-----7------|
D|-------------------|-------------------|-------------------|-----------------|
A|--0---0---0---0----|--0---0---0---0----|--0---0---0---0----|--0---0---0---0--|
E|-------------------|-------------------|-------------------|-----------------|

   1 . 2 . 3 . 4 .     1 . 2 . 3 . 4 .     1 . 2 . 3 . 4 .     1 . 2 . 3 . 4 .

  C#m/B A/B    B7                          B  C#m/B  B         A/B

e|--9-----5-----2----|------2-----2------|--7-----9-9-7---7--|---5------5------|
B|--9-----5-----0----|----0---0-0---0----|--7-------9-7---7--|---5--------5----|
G|--8-----5-----1----|-------------------|--7---8---9-7-7-7--|---5----5-----5--|
D|-------------------|-------------------|-------------------|-----------------|
A|--0---0---0---0----|--0---0---0---0----|--0---0---0---0----|--0---0---0---0--|
E|-------------------|-------------------|-------------------|-----------------|

   1 . 2 . 3 . 4 .     1 . 2 . 3 . 4 .     1 . 2 . 3 . 4 .     1 . 2 . 3 . 4 .

   B  C#m/B  B          A/B                B  C#m/B  B          A/B

e|--7-----9-9-7---7--|----5-5------------|--7-----9-9-7---7--|----5-----5------|
B|--7-------9-7---7--|----5-5------------|--7-------9-7---7--|----5-------5----|
G|--7---8---9-7-7-7--|----5-5------------|--7---8---9-7-7-7--|----5---5-----5--|
D|-------------------|-------------------|-------------------|-----------------|
A|--0---0---0---0----|--0---0---0---0----|--0---0---0---0----|--0---0---0---0--|
E|-------------------|-------------------|-------------------|-----------------|

   1 . 2 . 3 . 4 .     1 . 2 . 3 . 4 .     1 . 2 . 3 . 4 .     1 . 2 . 3 . 4 .

  E/G#   F#

e|----0-----0--------|---------0---------|  (Repeat Part 1)
B|------------0------|---------0---------|
G|--3---3-1-----0----|---------0---------|
D|-------------------|-------------------|
A|-------------------|-------------------|
E|--4-----2-----0----|---4-p0------------|

   1 . 2 . 3 . 4 .      1  .  2  .


[Coda]

(natural harmonics)

e|-------------------|-------------------|--12----------------|
B|--------7----12----|----7--------------|--12----------------|
G|--5-----7----12----|----7--------------|--12----------------|
D|--5-----7----12----|----7--------------|--12----------------|
A|--5----------------|-------------------|---0----------------|
E|-------------------|-------------------|---0----------------|
   ^     ^     ^         ^                  ^
(strike sharply with downward stroke)     (strum slowly)
Suggest correction
What's this?
You can suggest a correction to this tab. Community and Mods will review your correction and vote to approve or reject it.
comments
print report bad tab
11 comments total. Showing first comments.
0 reply
freewheelinbird 2,224 wrote on May 2 2005, 12:00 am

awesome job my friend

0 reply
~ZosoDude~ 90 wrote on August 14 2006, 01:23 pm

Impeccable

0 reply
tommacco 22 wrote on August 9 2007, 03:40 pm

excellent tab... awesome song

guest
You may want to rate the tab now too:
select rating
Please do not post tabs as comments. Select "correction" instead!